You Suck

Murmurs

 DDsus2GFDG
e--2--2--2--2--3--2---3--0--1--2--2--2--2--2--2--3--3--3--3--3--3--|
B--3--3--3--3--3--3---3--0--1--3--3--3--3--3--3--3--3--3--3--3--3--|
G--2--2--2--2--2--2---4-----2--2--2--2--2--2--2--0--0--0--0--0--0--|
D------------------------------------------------0--0--0--0--0--0--|
A------------------------------------------------2--2--2--2--2--2--|
E------------------------------------------------3--3--3--3--3--3--|


Riff 1:
 GFD
e--3--0--1--2---|
B--3--0--1--3---|
G--4-----2--2---|


Verse 1:
 DG
 No one hurt my fragile little mind right now
 G
It's tangled up
 DG
And don't you know    
 DG
The pussycat in me is curling up right now
 G
But I'll bloom
 D
>From the inside out

Chorus:
 C
But right now there's dust on my guitar, you fuck
 G
And it's all your fault
 Am
Oh you paralyzed my mind
G A D (Riff 1)
And for that you suck, uh - huh - huh - hoh !

Verse 2:
 D
 Freedom's on my list today
 G
And I'm feelin' pissed
 G
But my timeless thoughts and ageless mind
 D
Won't let you get away (let you get away)
 G
And your guilty little conscience
 D
Won't either

*Chorus (play Riff 1 twice on the last line)

Bridge:
 C
 We all take risks

We all fall hard
 Am
But you, you went too far
 D
And I'm too plush for your pathetic dicks
 G
And you're the only one you'll scar

*Chorus (change last line to:)
 G
And for that you suck

And for that you suck
 AG
Huh-h    -   oh, hu-hoh,
A G *E
Huh-h - oh, hu-hoh,
A *E A *E A
Huh-hoh, huh-hoh, huh-hoh!

Special chord:

*E

EADGBe
XX000X

X - not played


A Am C D Dsus2 F G
variations - click chord images
Transpose chords:
Tuning:
Cool service:
View: Size:
A  A  A
Rating:
Layout:
  • Currently 3.4/5 Stars.
  • 1
  • 2
  • 3
  • 4
  • 5
 
Accuracy:
  • Currently 2.6/5 Stars.
  • 1
  • 2
  • 3
  • 4
  • 5
 
click stars to rate
Chordie recommends:
Learn to play this song & others via video guitar lessons at JamPlay.com
Songbook:
Login to add this song to your songbook
Support the artist
Preview/buy this song
MSN Music
Why this non-profit ad?

 
login to add comments/video/corrections