Chordie logo

Cant Take My Eyes Off You  Muse

E-----------0---|


B-----------12--|


G-9---------9---| 


D-10--------10--| 


A-10--------10--|


E---------------|




-----------------------------------

you're just too [C]good to be true

can't take my [G]eyes off you
you feel like [Gm]heaven to touch

i wanna h[F]old you so much

at long lost l[Fm]ove has arrived

and i thank [C]god i'm alive

you're just too [F]good to be true[Fm]
can't take my [C]eyes off you
-----------------------------------

Verse 2

Pardon the [C]way that I stare.

There's nothing [G]else to compare.

The sight of [Gm]you leaves me weak.

There are no [F]words left to speak,

But if you [Fm]feel like I feel,

Please let me [C]know that it's real.

You're just too [F]good to be true.[Fm]

Can't take my [C]eyes off you.


E-----------------------|

B---------------1-0-----|
G-1-2--1-2--1-2------2--|
D-----------------------| x3
A-----------------------|
E-----------------------|
E-----------------------|
B-----------------------|
G-1-2--1-2--22222222----|
D-----------------------|
A-----------------------|
E-----------------------|

Chorus
-----------------------------------


I love you

[Dm]baby and if it's [G]quite alright i need you

[C]baby to cure my [A]lonely heart i want you

[Dm]baby [G]trust in me when i [C]say   [A]

Oh  pretty [Dm] baby

don't bring me [G]down i pray

oh pretty [C]baby

now that i've f[A]ound this day

Oh let me [Dm]love you baby

let me [G]love you
-----------------------------------


Repeat verse 1, chours and then ...

E-----------------------------------|

B-----------------------------------|
G-4--4-5-4-3--3-5-3-2--2-3-2-1-1-1-0|
D-----------------------------------|
A-----------------------------------|
E-----------------------------------|



Enjoy!

Tabbed by:
sonia ruggeri dead_star_91@yahoo.it

Important: The song above is NOT stored on the Chordie server. The original song is hosted at www.guitaretab.com. Chordie works as a search engine and provides on-the-fly formatting. Chordie does not index songs against artists/composers will. To remove this song please click here.

A C Dm F Fm G Gm
variations - click chord images

Login - add to songbook

Transpose chords

Tuning

Rating click stars to rate

Layout
Accuracy

SHARE PAGE  



You need to log in to post comments