Chordie logo
content loaded from cache

TIL THERE WAS YOU  Music Man

-|--1-----------------------------------------


-|-----1--------------------------------------


-|--------2------------3----------------------


-|-----------4-----/5-----5-------------------


-|---------------------------3----------------


-|--------------------------------------------



There were be[F]lls  on a [F#dim]hill
But I n[Gm]ever heard them ri[Bbm]nging
No I ne[F]ver he[Am]ard them [G#m]at   [Gm]all
[C7]Til there was y[F]ou[Gm] [C7]
Verse 2:
There were bi[F]rds  in th[F#dim]e sky
But I n[Gm]ever saw them w[Bbm]inging
No I ne[F]ver s[Am]aw them [G#m]at   [Gm]all
[C7]Til there was y[F]ou[F7]
Middle:
Then there was m[Bb]usic [Bbm]and wonderful ro[F]ses
They t[D7]ell me in s[Gm]weet fragrent me[G7]adows of d[C]awn and y[C+]ou
Verse 3:
There was lo[F]ve all a[F#dim]round
But I n[Gm]ever heard it s[Bbm]inging
No I ne[F]ver h[Am]eard it [G#m]at   [Gm]all
[C7]Til there was y[F]ou[Gm] [C7]
Guitar solo to chords of verse...
       [F]                  [F#dim]           [Gm]                                                                
E----------------------------------------------5-3-5-3-5-3--
B-----------------------------------------------------------
G---------10-7--------------------8-7----------5-3-5-3-5-3--
D--7-8-10------10-8-7--------7-10-----10-8-7-8--------------
A---------------------10-8-9--------------------------------
E-----------------------------------------------------------

  [Bbm]             [F]   [Am]   [Abm]    [Gm]    [C7]   [F]                                
E-8-6-8-6-8-6--1--8---7---6--5-----1-----------------1----------
B--------------1--5---4---3--5-------1-------------1------------
G-8-6-8-6-8-6--2--5---4---3--5---------2---------2--------------
D--------------3--5---4---3--5---------------1-4----------------
A--------------3--7---6---5--3-----------0-3--------------------
E--------------1--5---4---3-----1-------------------------------


.. then repeat middle, then repeat last verse, then...
Ending:
[C7]Til there was
   [F]                  [Db]               [F]            [FMaj7]                
-|-------10--13--10--13--9---11---9--8---5--5--5--0-----------
-|-------10--10--10--14--9----9---9--10--6--6--6--1-----------
-|-------10--10--10--13--10--10--10--10--5--5--5--2-----------
-|------------------------------------------------3-----------
-|------------------------------------------------3-----------
-|------------------------------------------------1-----------

you.......

Important: The song above is NOT stored on the Chordie server. The original song is hosted at www.guitaretab.com. Chordie works as a search engine and provides on-the-fly formatting. Chordie does not index songs against artists/composers will. To remove this song please click here.

Abm Am Bb Bbm C C+ C7 D7 Db F F#dim F7 Fmaj7 G#m G7 Gm
variations - click chord images

Transpose chords

Tuning

Rating click stars to rate

Layout
Accuracy

SHARE PAGE  

You need to log in to post comments