Guitar Tabs, Chords and Lyrics


Halfcrazy  Musiq Soulchild

     [Bm7]     [E7sus4]         [F#7]      [F#5]       [E5]       [G#5]                                         
e|----2------5------2-----x------x------x------|
B|----3------3------2-----7------5------9------|
G|----2------4------3-----6------4------8------|
D|----4------2------2-----4------2------6------|
A|----2------x------4-----x------x------x------|
E|----x------x------2-----x------x------x------|



Verse/Chorus Riff
     [Bm7]               [E7sus4]                      [F#7]                                      
e|----2-2-2-2-2-0----5-5-5-5-5-3----2-2-2-2-2-0-2--------------------------|
B|----3--------------3--------------2-----------2--------------------------|
G|----2--------------4--------------3-----------3--------------------------|
D|----4--------------2--------------2-----------2----4-2-------------------|
A|----2--------------x--------------4-----------4--------4-----------------|
E|----x--------------x--------------2-----------2----------2---------------|


Bridge
     [F#5]                  [G#5]     [F#5]     [E5]                                               
e|----x-----4-2---------x----x----x------------|
B|----7---5-------------9----7----5------------|
G|----6-----------------8----6----4------------|
D|----4-----------------6----4----2------------|
A|----x-----------------x----x----x------------|
E|----x-----------------x----x----x------------|



Intro: (play four times, "La, la, la, la" comes in at the third set)
[Bm7]      [E7sus4]         [F#7]                     
Verse 1:
Never t[E7sus4]hought that we would e[F#7]ver be more than friends [Bm7]
Now I'm [E7sus4]all confused cause [F#7]for you I have deeper feelings  [Bm7]
We both though[E7sus4]t it was cool to [F#7]cross the line
And I was convinced it would be alright  [Bm7]
Now things are [E7sus4]strange, nothings the [F#7]same
And really I just want my friend back
Chorus:
And my [Bm7]mind's gone half [E7sus4]crazy cause I c[F#7]an't leave you alone
(oh can't get you out of my system)
And I'm [Bm7]wondering[E7sus4] if it's worth [F#7]me holding on (holding on)
Said my [Bm7]mind's gone half [E7sus4]crazy cause I c[F#7]an't leave you alone
(can't get you out of my system)
And I'm [Bm7]wondering[E7sus4] if it's worth [F#7]me holding on (yeah)
Verse 2:
I'd hate[E7sus4] walk away from [F#7]you as if this never existed [Bm7]
Cause when we [E7sus4]kissed the moment a[F#7]fter I looked at you different [Bm7]
Lately I [E7sus4]gotta watch what I say [F#7]
Cause you take things personal nowadays  [Bm7]
You used to [E7sus4]laugh now you get [F#7]mad
Damn I just want my friend back

Chorus:
And my [Bm7]mind's gone half [E7sus4]crazy cause I c[F#7]an't leave you alone
(oh can't get you out of my system)
And I'm [Bm7]wondering[E7sus4] if it's worth [F#7]me holding on (holding on)
Said my [Bm7]mind's gone half [E7sus4]crazy cause I c[F#7]an't leave you alone
(can't get you out of my system)
And I'm [Bm7]wondering[E7sus4] if it's worth [F#7]me holding on (yeah)

Bridge:
o[F#5]h   oh        oh     [G#5]oh   [F#5]oh   [E5]yeah
W[F#5]hat happened to the one [G#5]I use[F#5]d to [E5]know (oh yeah yeah)
T[F#5]he one I used to laugh and joke with
T[G#5]he on[F#5]e I u[E5]sed to tell all my secrets
W[F#5]e used to chill and be d[G#5]own f[F#5]or wh[E5]atever whenever together yeah

Chorus:
And my [Bm7]mind's gone half [E7sus4]crazy (oh) caus[F#7]e I can't leave you alone
(I'm going half crazy baby)
And I'm [Bm7]wondering[E7sus4] if it's worth [F#7]me (oh) holding on (over you)
Said my [Bm7]mind's gone half [E7sus4]crazy (yeah) ca[F#7]use I can't leave you alone
(and I just don't know)
And I'm [Bm7]wondering[E7sus4] if it's worth [F#7]me holding on
(said I just don't know what to do now)

Outro:
we used to c[Bm7]hill ([E7sus4]yeah) we used to [F#7]hang (yeah)
we used to [Bm7]do we used to [E7sus4]do so many t[F#7]hings together (yeah)
ye[Bm7]ah yeah yeah yeah[E7sus4] oh oh yeah oh [F#7]oh oh

Important: The song above is NOT stored on the Chordie server. The original song is hosted at www.guitaretab.com. Chordie works as a search engine and provides on-the-fly formatting. Chordie does not index songs against artists'/composers' will. To remove this song please click here.

Text color:
Chord color:
Chord grids: 
Font size:    
Page size: 

Bm7 E5 E7sus4 F#5 F#7 G#5
variations - click chord images

Login - add to songbook

Transpose chords

Tuning

Rating click stars to rate

Layout
Accuracy

SHARE PAGE  




You need to log in to post comments