Guitar Tabs, Chords and Lyrics


Sad Sad Song   Mxpx



-----------------------------------------------------------------
Sad Sad Song - MXPX
-----------------------------------------------------------------
Tabbed by: Bair
Email: bair_morritt@hotmail.com

Tuning: Standard

(All Bass Intro & Verses)

Pre Verse 1:
e|------------------------------------------|
B|------------------------------------------|
G|--77777777----------------------99999999--|
D|--77777777--77777777--99999999--99999999--|
A|--55555555--77777777--99999999--77777777--|
E|------------55555555--77777777--00000000--|
“Stab out my eyes....”

Pre Verse 2:
e|------------------------------------------|
B|------------------------------------------|
G|--77777777--99999999----------------------|
D|--77777777--99999999-(X2)-----------------|
A|--55555555--77777777----------------------|
E|------------00000000----------------------|
“Cause I don’t wanna sing along....”

e|-------------------------------------------|
B|-------------------------------------------|
G|--77777777----------------------9-9999999--|
D|--77777777--77777777--99999999--9-9999999--|
A|--55555555--77777777--99999999--7-7777777--|
E|------------55555555--77777777--0-0000000--|
“You get a good thing....”

Interlude:
e|------------------------------------------|
B|------------------------------------------|
G|-------7-------9--------------------------|
D|--7----7----9--9--7-----------------------|
A|--7----5----9--7--7-----------------------|
E|--5---------7--0--5-----------------------|
“Na nana na na now....”

e|-------------------------------------9-9-9-99-9--|
B|-------------------------------------------------|
G|------------77777777--------9999-----------------|
D|--77777777--77777777--9999--9999--7--------------|
A|--77777777--55555555--9999--7777--7--------------|
E|--55555555------------7777--0000--5--------------|
“Na nana na na now....”

Then- Pre Verse 2
Then- Interlude


Important: The song above is NOT stored on the Chordie server. The original song is hosted at www.guitaretab.com. Chordie works as a search engine and provides on-the-fly formatting. Chordie does not index songs against artists'/composers' will. To remove this song please click here.

This song is displayed as text-only. Transposing and tuning is only available for chordpro-songs.

Login - add to songbook

Rating click stars to rate

Layout
Accuracy

SHARE PAGE  




You need to log in to post comments