Guitar Tabs, Chords and Lyrics


Sister To Sleep   My Chemical Romance



 Okay, so its pretty easy, but there are no good tabs of it, here it is

  Intro
  Guitar 1
e|-------------------------------------------------|
B|-------------------------------------------------|
G|-------------------------------------------------|
D|---6--6--6--6---66666666666666666666666666666666-|
A|---4--4--4--4---44444444444444444444444444444444-|
E|-------------------------------------------------|
     *  *  *  *   ********************************


Guitar 2
e|-------------------------------------------------|
B|-------------------------------------------------|
G|--------------------------------6666666666666666-|
D|-------------------------------------------------|
A|-------------------------------------------------|
E|-------------------------------------------------|

Verse

 Guitar 1- palm muted

e|-------------------------------------------------|
B|-------------------------------------------------|
G|-------------------------------------------------|
D|--66666666666666666666666666666666---------------|
A|--44444444444444444444444444444444---------------|
E|-------------------------------------------------|
Welcome to this institution, one way to resolution

e|-------------------------------------------------|
B|-------------------------------------------------|
G|-------------------------------------------------|
D|-------------------------------------------------|
A|--77777777777777777777777777777777---------------|
E|--55555555555555555555555555555555---------------|
Watch this medication enjoys rollin down my throat


Guitar 1 plays that through all verses

Guitar 2

e|-------------------------------------------------|
B|-------------------------------------------------|
G|--66666666666666666666666666666666---------------|
D|--xxxxxxxxxxxxxxxxxxxxxxxxxxxxxxxx---------------|
A|--44444444444444444444444444444444---------------|
E|-------------------------------------------------|
Welcome to this institution, one way to resolution

e|-------------------------------------------------|
B|-------------------------------------------------|
G|--9-9-/-8-9-9------------------------------------|
D|--x-x-----x-x-----X4-----------------------------|
A|--7-7-/-6-7-7------------------------------------|
E|-------------------------------------------------|
Watch this medication enjoys rollin down my throat

Guitar 2 plays throughout all verses


Chorus

Guitar 1

e|-------------------------------------------------|
B|-------------------------------------------------|
G|-------------------------------------------------|
D|-------------------------------------------------|
A|-66666666-44444444-22222222-44444444-------------|
E|-44444444-22222222-00000000-22222222-------------|

Guitar 1 plays that throughout all choruses


Guitar 2

e|----------------------------------------------------|
B|----------------------------------------------------|
G|-13-13-13-13-13-13-13-13-99999999-88888888-99999999-|
D|-x--x--x--x--x--x--x--x--xxxxxxxx-xxxxxxxx-xxxxxxxx-|
A|-11-11-11-11-11-11-11-11-77777777-66666666-77777777-|
E|----------------------------------------------------|
What did I say to put sis to sleep?


e|-------------------------------------------------------------|
B|-------------------------------------------------------------|
G|-16--16--16--16--14--14--14--14--13--13--13--14--11-11-11-11-|
D|-x---x---x---x---x---x---x---x---x---x---x---x---x--x--x--x--|
A|-14--14--14--14--12--12--12--12--11--11--11--11--9--9--9--9--|
E--------------------------------------------------------------|
                       And I'll fall awake and die


Guitar 2 plays that throughout all choruses

Break

There's a bit of a break in between the 2nd chorus and the last chorus.
Basically both guitars play Guitar 1's verse in a different rhythm....It's really quite simple...

The order:
Intro
Verse
Chorus
Verse
Chorus
Break
Chorus


There it is, I think its a pretty accurate tab for a song which had no accurate tabs to 


Important: The song above is NOT stored on the Chordie server. The original song is hosted at www.guitaretab.com. Chordie works as a search engine and provides on-the-fly formatting. Chordie does not index songs against artists/composers will. To remove this song please click here.

This song is displayed as text-only. Transposing and tuning is only available for chordpro-songs.

Login - add to songbook

Rating click stars to rate

Layout
Accuracy

SHARE PAGE  




You need to log in to post comments