"yes"; ?> Im Amazed by My Morning Jacket - guitar chords, guitar tabs and lyrics - chordie

Im Amazed

My Morning Jacket

-------------------------------------------------------------------------------

-------------------------------------------------------------------------------
e|9-11-9-8-9-8---------8----|
B|-------------11-9------9--|
G|--------------------------|
D|--------------------------| (Repeat 4 times)
A|--------------------------|
E|--------------------------|

 AbGbC#CEb
e|---4--------2---------4---------3--------6-----------------------------------|
B|---4--------2---------6---------5--------8-----------------------------------|
G|---5--------3---------6---------5--------8-----------------------------------|
D|---6--------4---------6---------5--------8-----------------------------------|
A|---6--------4---------4---------3--------6-----------------------------------|
E|---4--------2---------X---------X--------X-----------------------------------|


Ab Gb C# (Repeat 4 times)

 Ab
 im amazed in the quiet ocean
 C#Ab
 im amazed at your wrong devotion
 Ab
 im amazed at what the people saying
 C#Ab
 im amazed by a divided nation
 EbC#
 like the middle of the earth
 Ab
i get disrupted

 Ab
 im amazed at all that has been
 C#Ab
 im amazed at all who be
 Ab
 im amazed at the tv stations
 C#Ab
 im amazed what they want me to believe
 EbC#
 after all is said and done
 Ab
now lets seek justice
(Intro X2)

 Ab
 im amazed at the evoltion
 C#Ab
 im amazed at the lack of faith
 Ab
 im amazed at love we are rejected
 C#Ab
 im amazed that we accepted this place
 EbC#
 like the middle of the earth
 EbC#
 and the middle of the ages
 EbC#Ab
 like a river i get disrupted

(Ab during solo)

 AbGbC#
 im amazed        
 AbGbC#CC#Eb
 im amazed                    
 AbGbC#
 im amazed        
 AbGbC#
 Ab
(play intro 8 times)


Ab C C# Eb Gb
variations - click chord images
Transpose chords:
Tuning:
Cool service:
View: Size:
A  A  A
Rating:
Layout:
  • Currently 3.7/5 Stars.
  • 1
  • 2
  • 3
  • 4
  • 5
 
Accuracy:
  • Currently 3.3/5 Stars.
  • 1
  • 2
  • 3
  • 4
  • 5
 
click stars to rate
Chordie recommends:
Learn how to play guitar at JamPlay.com
Songbook:
Login to add this song to your songbook
Support the artist
Preview/buy this song
MSN Music
Why this non-profit ad?

 
login to add comments/video/corrections