Guitar Tabs, Chords and Lyrics


Always Your Way Acoustic   My Vitriol



MY VITRIOL – ALWAYS YOUR WAY (ACOUSTIC VERSION)

drop D tuning


Intro

E--9----9------------------------------------------------x---x--------|
B--10---10-----------------------------------------------x---x--------|
G—-11---11----------------6b-9-11-6----------------------7---6--------|
D--0----9---x2-------------------------------------------0---0--------|
A--x----9---------strum roughly over these---------------x---x--------|
D--x----9--------notes muting the top strings EandB------9---7--------|

Verses

E---9-----9----x---x---2—(2)------|
B---10---10----0---0---3—(2)------|
G---11---11----0---0---2-(2)------|
D---0----9-----0---0---0----------|
A---x----9-----0---0---0----------|
D---x----9-----5---2---0----------|

Chorus

E--0---x---2--0------0--x--2---------------------------------|
B--7---0---3--2------7--0—-3--------3-5-7--------------------| 
G--0---0---2--2------0--0--2---------------------------------|
D--0---0---0--2------0--0--0-----again strum roughly----x2---|
A--7---0---0--0------7--0--0--------over these notes---------|


Important: The song above is NOT stored on the Chordie server. The original song is hosted at www.guitaretab.com. Chordie works as a search engine and provides on-the-fly formatting. Chordie does not index songs against artists'/composers' will. To remove this song please click here.

This song is displayed as text-only. Transposing and tuning is only available for chordpro-songs.

Login - add to songbook

Rating click stars to rate

Layout
Accuracy

SHARE PAGE  




You need to log in to post comments