""; ?> Avant Que Lombre by Mylene Farmer - guitar chords, guitar tabs and lyrics - chordie

Avant Que Lombre

Mylene Farmer

 FmC#A#G#D#
En jouant alternativement les cordes graves et les aigus
(enfin je me comprends...)

 FmC#A#G#D#
E||--1----1----1----4----|--3----||
B||--1----2----3----1----|--4----||
G||--1----1----3----1----|--3----||
D||--3----3----3----1----|--1----||
A||--3----4----1----3----|-------||
E||--1--------------4----|-------||


Ou avec un capo en 1, bien plus facile!

 EmCAGD

 EmCAGD
E||--0----0----0----3----|--2----||
B||--0----1----2----0----|--3----||
G||--0----0----2----0----|--2----||
D||--2----2----2----0----|--0----||
A||--2----3----0----2----|-------||
E||--0--------------3----|-------||


Solo (2:20)

E||---------------------------------------------------------|
B||--11--11--11--9--9--9--8--8--8--6----------6h--8---------|
G||---------------------------------------------------------|
D||---------------------------------------------------------|
A||---------------------------------------------------------|
E||---------------------------------------------------------|
    --------------------------------------------------------|
    --11--11--11--13--13--13--11--11--11--13--13--13--------|
    --------------------------------------------------------|
    --------------------------------------------------------|
    --------------------------------------------------------|
    --------------------------------------------------------|


 FmC#A#G#FmC#A#G#D#






















A A# C C# D D# Em Fm G G#
variations - click chord images
Transpose chords:
Tuning:
Cool service:
View: Size:
A  A  A
Rating:
Layout:
  • Currently 3.4/5 Stars.
  • 1
  • 2
  • 3
  • 4
  • 5
 
Accuracy:
  • Currently 2.4/5 Stars.
  • 1
  • 2
  • 3
  • 4
  • 5
 
click stars to rate
Chordie recommends:
Learn to play guitar with video-based, online guitar lessons at JamPlay.com
Songbook:
Login to add this song to your songbook
Support the artist
Preview/buy this song
MSN Music
Why this non-profit ad?

 
login to add comments/video/corrections