Guitar Tabs, Chords and Lyrics


Especially For You  Mymp

     [C]    [F]   [D7sus]      [D7]    [C7sus]      [Gm]     [C7]     [C/E]     [C#/F]     [Csus]     [Fsus]     [A/C#]                               
E|---3---1---x-----x---3-----3----3----0----4----3----1----0---------------|
B|---3---1---8-----7---6-----3----5----2----4----6----1----2---------------|
G|---5---2---5-----5---3-----3----3----0----6----5----3----2---------------|
D|---5---3---7-----7---5-----3----5----2----6----5----3----2---------- ----|
A|---3---3---5-----5---3-----5----3----3----4----3----3----4---------------|
E|---x---1---x-----x---x-----3----x----0----4----x----1----x---------------|



INtro; F A Bb C

Esp[C]ecially for y[F]ou
Iwanna [D7sus]let you know wha[D7]t's
Iwas going throu[Gm]gh
All the t[Gsus]ime wewere ap[C7]art
I thought of [F]you
C/E Bbsus?Eb C#/F
You were in my heart my love never change
Csus C hold
I still feel the same
Especially for [F]you
I wanna [D7sus]tell you,  I was
Fe[D7]eling that way t[Gm]oo
And if dreams were w[C7sus]ings you k[C]now
i would have flown to [F]you[C/E]
To be where you [Bbsus/Bb]are
No matter how [C#]far
An[C]d now that im next to you

Refrain:

[F]No more dreaming about tomorrow
[A/C#]Forget the loneliness and the sorrow
I'[Dm]ve got to say, It's all
Because of [Bb]you and

Chorus:

[C]Now were back [F]toge[Dm]ther, [Gm]togeth[C]er
i wanna [Am]show you [Dm]my hearts
is [Gm]oh so tr[C]ue
And all the l[Am]ove i ha[Dm]ve is
     [Gm]   [C]           [F-C]                  
Same chords verse;


Especially for you.
I wanna tell you,
you mean all the world to me
How I'm certain that our love was meant to be
You changed my life
You showed me the way
And now that I'm next to you


Refrain 2:(do chords refrain 1

Ive waited long enough to find you
I wanna put all the hurt behind you Oh,
And I wanna bring out all the love inside you,Oh

Repeat chorus
Ad lib:

E|---------------------------------------------------------------------|
B|---------5--6h5-5-3--5-----------------------3-3h4h3--4hold--3hold---|
G|----5-7-----------------5~~~--------------5--------------------------|
D|---------------------------------------4-----------------------------|
A|-------------------------------------5-------------------------------|
E|---------------------------------------------------------------------|
E|---------------------------------------------------------------------|
B|--------3hold--4hold---6--3-3h5h3--(1)h3-----------------------------|
G|---------------------------------------------5-3-5-5s7----5----------|
D|---------------------------------------------------------------------|
A|---------------------------------------------------------------------|
E|---------------------------------------------------------------------|
E|---------------------------------------------------------------------|
B|--------------------------------------- -----------------------------|
G|--------5-7-5-3-2----------------------------------------------------|
D|---------------------------------------------------------------------|
A|---------------------------------------------------------------------|
E|---------------------------------------------------------------------|


You were in my h[Bbsus/Bb]eart
My love never ch[C#]anged
And now that im n[C]ext to you

Repeat Refrain;
Repeat chorus:
Fade;

For any comments, you can send your messages at (winserrano@yahoo.com)
sa friendster ko. or u can also mek ur call or txt sa (09223006427)
vote plz!! tnxxx

Important: The song above is NOT stored on the Chordie server. The original song is hosted at www.guitaretab.com. Chordie works as a search engine and provides on-the-fly formatting. Chordie does not index songs against artists'/composers' will. To remove this song please click here.

Text color:
Chord color:
Chord grids: 
Font size:    
Page size: 

A/C# Am Bb C C# C#/F C/E C7 C7sus Csus D7 D7sus Dm F Fsus Gm Gsus
variations - click chord images

Login - add to songbook

Transpose chords

Tuning

Rating click stars to rate

Layout
Accuracy

SHARE PAGE  




You need to log in to post comments