Closer I Get To You

Mymp

E|---4h5p4----------------7--5--4--------------------|

B|----------5---------B------------5s75--------------|
G|--------------6s9---a------------------------------|
D|--------------------s------------------------------|
A|-0------------------s------------------------------|
E|---------------------------------------------------|

 AM7DM7C#m7AM7
E|---------------------------------------------------|
B|--------5---5----------------5-----4------5--------|
G|---6----------------------6--------5------6--------|
D|------7--------------------------6------7----------|
A|---0------0---------------5-----4------0-----------|
E|---------------------------------------------------|

The closer i get to you

 AM7DM7C#m7AM7
E|---------------------------------------------------|
B|--------5---5----------------5-----4------5--------|
G|---6----------------------6--------5------6--------|
D|------7--------------------------6------7----------|
A|---0------0---------------5-----4------0-----------|
E|---------------------------------------------------|

The more you make me see

 AM7DM7C#m7AM7
E|---------------------------------------------------|
B|--------5---5----------------5-----4------5--------|
G|---6----------------------6--------5------6--------|
D|------7--------------------------6------7----------|
A|---0------0---------------5-----4------0-----------|
E|---------------------------------------------------|

By giving me all you got (tell me more)

 AM7DM7C#m7AM7
E|---------------------------------------------------|
B|--------5---5----------------5-----4------5--------|
G|---6----------------------6--------5------6--------|
D|------7--------------------------6------7----------|
A|---0------0---------------5-----4------0-----------|
E|---------------------------------------------------|

Your love has captured me

Chorus:
 DM7C#m7
 Over and over again
 Bm7-AM7DM7
I tried to tell myself that we
 C#m7Bm7AM7
Could never be more than friends
 DM7C#m7
But all the while, inside , i knew it was real
 Bm7-AM7
The way you make me feel

Verse 2( AM7-DM7-C#m7-AM7)
Lyin' here next to you
Time just seems to fly
Needing you more and more (more and more)
Let's give love a try

 DM7-C#m7-Em-A7
 Sweeter and sweeter love grows
And heaven's there for those
Who fool the tricks of time
With hearts of love will find
True love in a special way

 AM7-DM7-C#m7-AM7
 Come a little closer so that we can see
Into the eyes of love
Just a little closer let me speak to you
I want to softly tell you something
Come a little closer let me whisper in your ear
Cuz i wanna tell you something
Move on in real close so we can celebrate
The way we feel a bout each other's loving

Comments,questions?? send me a message in friendster at Walterfdelacruz@yahoo.com or you
text me or call me at 09224012464


Am7 Bm7 C#m7 Dm7
variations - click chord images
Transpose chords:
Tuning:
Cool service:
View: Size:
A  A  A
Rating:
Layout:
  • Currently 3.5/5 Stars.
  • 1
  • 2
  • 3
  • 4
  • 5
 
Accuracy:
  • Currently 2.6/5 Stars.
  • 1
  • 2
  • 3
  • 4
  • 5
 
click stars to rate
Chordie recommends:
Learn to play guitar with video-based, online guitar lessons at JamPlay.com
Songbook:
Login to add this song to your songbook
Support the artist
Preview/buy this song
MSN Music
Why this non-profit ad?

 
login to add comments/video/corrections