Guitar Tabs, Chords and Lyrics


Game Of Love   Mymp



Song: Game of Love
Artist: Subseven
Album: Free to Conquer
Tabbed By: Alex (alex-zander-@hotmail.co.uk)
Tabbed: 22/5/07
Tuning: Drop C

Intro/Verse 1

Guitar 2

(0:00) When I was young....
D:------------------------|
A:------------------------|
F:------------------------|
C:-0------0-----0-0-0-----| 
G:-0------0-----0-0-0-----|
C:-0------O-----0-0-0-----|
PM .      .     . . .


Gtr 1

(0:00) When I was young....
D:-------------------------------|
A:-------------------------------|
F:--10/9--7/9--10/9--12/10--9/10-|
C:--x-/x--x/x--x-/x--x-/x---x/x--| repeat as necessary
G:--8-/7--5/7--8-/7--10/8---7/8--|
C:0------O----0-----0------0-----| (no PM 1st time)
PM.      .    .     .      .       

ChoruS/break

(0:15) To think that I'm....
D:-----------------------------------------8~------|
A:-----------------------------------------10^(13)~|
F:101010101010101010101010101010101010-------------|
C:101010101010101010101010101010101010-------------|
G:8-8-8-8-8-8-8-8-8-8-8-8-8-8-8-8-8-8--000---------|
C:8-8-8-8-8-8-8-8-8-8-8-8-8-8-8-8-8-8--000---------|
				       ...

(Repeat the whole above section again for verse 2)


Verse 3

(0:45) To hear you say....
D:---------------------------------------|
A:---------------------------------------|
F:---10/9-----7/9-----10/9----12/10-9/10-|
C:---x-/x-----x/x-----x-/x----x-/x--x/x--| X2
G:00-8-/7--00-5/7--00-8-/7--0-10/8--7/8--|
C:00-------00------00-------0------------|
  ..	   ..  	   ..	    .

Then....

:---------------------------------------|
A:---------------------------------------|
F:--10/9----7/9----10/9----12/10----9/10-|
C:0-x-/x--0-x/x--0-x-/x--0-x-/x---0-x/x--|
G:0-8-/7--0-5/7--0-8-/7--0-10/8---0-7/8--|
C:0-------0------0-------0--------0------|


Break

(1:27) Pieces of you....
D:--------------------------------------------------------------|
A:--------------------------------------------------------------|
F:101010101010101010--121212121212121212--14141414141414141414--| X3
C:101010101010101010--121212121212121210--14141414141414141414--|
G:8-8-8-8-8-8-8-8-8---101010101010101010--12121212121212121212--|
C:8-8-8-8-8-8-8-8-8---101010101010101010--12121212121212121212--|



(Then Repeat chorus/main riff) 



great song, I can't get over the bit at 1:07 where the drums come in
with the cross rhythms, that's musical genious :D


Important: The song above is NOT stored on the Chordie server. The original song is hosted at www.guitaretab.com. Chordie works as a search engine and provides on-the-fly formatting. Chordie does not index songs against artists'/composers' will. To remove this song please click here.

This song is displayed as text-only. Transposing and tuning is only available for chordpro-songs.

Login - add to songbook

Rating click stars to rate

Layout
Accuracy

SHARE PAGE  




You need to log in to post comments