Guitar Tabs, Chords and Lyrics


Baby Now That Ive Found You  Mymp

E|----0-2--0---------0-2--0------| \


B|--0-----0--0-----0-----0--0----|  \


G|-------------------------------|   \

D|-2-----------2-0------------0--| \
A|-------------------------------| \
E|-------------------------------| \
E|----0-2--0---------0-2--0------| /
B|--0-----0--0-----0-----0--0----| /
G|-------------------------------| /
D|-4-----------4-3---------------| /
A|-------------------------------| /
E|-------------------------------|/
E|----0-2--0-----------2-------2-|
B|--0-----0--0-------2---------2-|\
G|-----------------2--------2----| \
D|-2-----------2-----------------| \
A|-------------------------------| \
E|----------------2-------2------| \
E|-------------------2-----------| /
B|-------5-----5--5----5---------| /
G|-----4-----4----4------4-------| /
D|---2-----2------2--------------| /
A|-0--------------0--------------| /
E|-------------------------------|/
E|----0-2--0------------0--------|
B|--0-----0-----------0----------|
G|-------------------------------|
D|-2----------------0------------|
A|------------1-3-4-------0-2----|
E|-------------------------------|
E|----0-2--0-----------2-------2-|
B|--0-----0--0-------2---------2-|\
G|-----------------2--------2----| \
D|-2-----------2-----------------| \
A|-------------------------------| \
E|----------------2-------2------| \
E|-------------------2-----------| /
B|-------5-----5--5----5---------| /
G|-----4-----4----4------4-------| /
D|---2-----2------2--------------| /
A|-0--------------0--------------| /
E|-------------------------------|/
E|-4----2----0----3---------------|
B|-4----2----1----1---------------|
G|-6----4----2----0---------------|
D|-6----4----2----2---------------|
A|-4----2----0----3---------------|
E|--------------------------------|
    [C#5]             [B5]                                                               
E|---------4-----------2----------|
B|-------4--4--------2---2--------|
G|-----6-----6-----4--------------|
D|---6-----------4----------------|
A|-4-----------2------------------|
E|--------------------------------|

    [C#5]             [B5]                                                               
E|-----4--------------4------------|
B|------------------4---4----------|
G|----------4-----6----------------|
D|---6----4-----6--------6---------|
A|-4----2-----4--------------------|
E|---------------------------------|

     [B5]               [Am]                                                            
E|---------2----------0------------|
B|-------2---2------1---1----------|
G|-----4----------2----------------|
D|---4----------2------------------|
A|-2----------0--------------------|
E|---------------------------------|

     [C]                [B5]                                                           
E|---------3-----------2-----------|
B|-------1---1-------2---2---------|
G|-----0-----------4---------------|
D|---2-----------4-----------------|
A|-3-----------2-------------------|
E|---------------------------------|

back to intro/verse 3x
E|----0-2--0---------0-2--0------| \
B|--0-----0--0-----0-----0--0----|  \
G|-------------------------------|   \
D|-2-----------2-0------------0--|    \
A|-------------------------------|     \
E|-------------------------------|      \

/ the 1st part
E|----0-2--0---------0-2--0------|     /
B|--0-----0--0-----0-----0--0----|    /
G|-------------------------------|   /
D|-4-----------4-3---------------|  /
A|-------------------------------| /
E|-------------------------------|/
E|----0-2--0-----------2-------2-|
B|--0-----0--0-------2---------2-|\
G|-----------------2--------2----| \
D|-2-----------2-----------------|  \
A|-------------------------------|   \
E|----------------2-------2------|    \

\ 2nd part
E|-------------------2-----------|     /
B|-------5-----5--5----5---------|    /
G|-----4-----4----4------4-------|   /
D|---2-----2------2--------------|  /
A|-0--------------0--------------| /
E|-------------------------------|/

back to bridge 1st
E|----0-2--0------------0--------|
B|--0-----0-----------0----------|
G|-------------------------------|
D|-2----------------0------------|
A|------------1-3-4-------0-2----|
E|-------------------------------|


Next- 2nd part of Intro/Verse (twice)
E|----0-2--0-----------2-------2-|
B|--0-----0--0-------2---------2-|\
G|-----------------2--------2----| \
D|-2-----------2-----------------|  \
A|-------------------------------|   \
E|----------------2-------2------|    \

\ 2nd part
E|-------------------2-----------|     /
B|-------5-----5--5----5---------|    /
G|-----4-----4----4------4-------|   /
D|---2-----2------2--------------|  /
A|-0--------------0--------------| /
E|-------------------------------|/

back to the 2nd bridge
    [C#5]             [B5]                                                              
E|---------4-----------2----------|
B|-------4--4--------2---2--------|
G|-----6-----6-----4--------------|
D|---6-----------4----------------|
A|-4-----------2------------------|
E|--------------------------------|

    [C#5]             [B5]                                                              
E|-----4--------------4------------|
B|------------------4---4----------|
G|----------4-----6----------------|
D|---6----4-----6--------6---------|
A|-4----2-----4--------------------|
E|---------------------------------|

     [B5]               [Am]                                                           
E|---------2----------0------------|
B|-------2---2------1---1----------|
G|-----4----------2----------------|
D|---4----------2------------------|
A|-2----------0--------------------|
E|---------------------------------|

     [C]                [B5]                                                          
E|---------3-----------2-----------|
B|-------1---1-------2---2---------|
G|-----0-----------4---------------|
D|---2-----------4-----------------|
A|-3-----------2-------------------|
E|---------------------------------|

back to intro verse.... ahahaha so there is like only 4 parts of the song
intro/verse , 1st bridge 2nd bridge apparently , don't know where's the chorus
errors??? email at kwanchichi1@yahoo.com

Important: The song above is NOT stored on the Chordie server. The original song is hosted at www.guitaretab.com. Chordie works as a search engine and provides on-the-fly formatting. Chordie does not index songs against artists'/composers' will. To remove this song please click here.

Text color:
Chord color:
Chord grids: 
Font size:    
Page size: 

Am B5 C C#5
variations - click chord images

Login - add to songbook

Transpose chords

Tuning

Rating click stars to rate

Layout
Accuracy

SHARE PAGE  




You need to log in to post comments