Guitar Tabs, Chords and Lyrics


Nothong Gonna Stop Us  Mymp

e|-----------9------------------------11---------------|


b|---7-9-11----11-9-11-7------7-9-11-----11-9-7-7------|


g|-----------------------------------------------------| Repeat 2x

D|-----------------------------------------------------|
A|-----------------------------------------------------|
E|-----------------------------------------------------|
Look[F]in' in your eyes I s[Am7]ee a paradise
This[B] world that I've found is too[C] good to be true
Stan[F]din' here beside you[Am7], want so much to give you
This[B] love in my heart that I'm fe[C]elin' for you
Verse 2:

Let [F]'em say we're crazy, I[Am7] don't care about that
Put [B]your hand in my hand, baby, d[C]on't ever look back
Let [F]the world around us ju[Am7]st fall apart
Baby[B], we can make it if we're hea[C]rt-to-heart

Chorus:
And we can bui[F]ld this dream together
Standing stron[Am7]g forever
Not[B]hing's gonna sto[C]p us now
And if this wo[F]rld runs out of lovers
We'll still ha[Am7]ve each other
Noth[B]ing's gonna stop us, nothi[C]ng's gonna stop us now, ohh now..


Verse 3:

I'm so[F] glad I found you, I'm n[Am7]ot gonna lose you
Whatev[B]er it takes, I will stay[C] here with you
Take y[F]ou to the good times, se[Am7]e you through the bad times
Whatev[B]er it takes is what I'm [C]gonna do

Verse 4:
Let 'e[F]m say we're crazy, what[Am7] do they know?
Put yo[B]ur arms around me, baby[C], don't ever let go
Let th[F]e world around us just [Am7]fall apart
Baby, [B]we can make it if we're[C] heart-to-heart

Chorus:
And we can bui[F]ld this dream together
Standing stron[Am7]g forever
Noth[B]ing's gonna stop us [C]now
And if this wo[F]rld runs out of lovers
We'll still ha[Am7]ve each other
Noth[B]ing's gonna stop us, no[C]thing's gonna stop[C] us, ooh

Bridge:
ooh[F]h, All [Am7]that I need is y[B]ou
All t[C]hat I ever ne[F]ed
Al[Am7]l that I want [B]to do
Is hold [C]you forever, foreve[C]r and ever....


Solo:

e|------------9-11-----------7--------------------------------|
b|--------9-7------9\7---------------9----7-------------------|
g|----------------------6h8-----6h8----6----6---10--9\7-6-----|
D|------------------------------------------------------------|
A|--7\--------------------------------------------------------|
E|------------------------------------------------------------|
e|-----11\9--12---/16v--14-12---------------------------------|
b|--11--------------------------------------------------------|
g|------------------------------------------------------------|
D|------------------------------------------------------------|
A|------------------------------------------------------------|
E|------------------------------------------------------------|
 |----------------FAST PART-----------------------|

pwede rin sa scale of "A" note sa 12th fret
e|-------------------------------------------------------------------11b--|
b|---------12h13-12--------------------------------------------13---------|
g|--12h14-----------14-12h14p12----------------------------12-----12------|
D|------------------------------14-12h14-12-------------------------------|
A|------------------------------------------14--12b-----------------------|
E|------------------------------------------------------------------------|

sensya na d2... medyo sketchy.. pero pwede na ^^

Repeat Chorus 2x

Chorus:

And [F]we can build this dream together
Stan[Am7]ding strong forever
Noth[B]ing's gonna stop us [C]now
And [F]if this world runs out of lovers
We'l[B]l still have each other
Noth[B]ing's gonna stop us, noth[C]ing's gonna stop us.. ohhh

Nothing's gonna stop us, hey Baby

Chorus:

And [F]we can Build this dream together
Stan[Am7]ding strong forever
Noth[B]ing's gonna stop us n[C]ow
And [F]if this world runs out of lovers
We'l[Am7]l still have each other
Noth[B]ing's gonna stop us, Nothing's g[C]onna stop us.. now....

FADE..

Important: The song above is NOT stored on the Chordie server. The original song is hosted at www.guitaretab.com. Chordie works as a search engine and provides on-the-fly formatting. Chordie does not index songs against artists'/composers' will. To remove this song please click here.

Text color:
Chord color:
Chord grids: 
Font size:    
Page size: 

Am7 B C F
variations - click chord images

Login - add to songbook

Transpose chords

Tuning

Rating click stars to rate

Layout
Accuracy

SHARE PAGE  




You need to log in to post comments