Blonde On Blonde

Nada Surf

 C
Intro: e|-----------------------------------|
       B|-------1-------1-------1-------1---|
       G|---0-------0-------0-------0-------|
       D|-----2-------2-------2-------2-----|
       A|-3-------3-------3-------3---------|
       E|-----------------------------------|         Repeat

twice
 G
       e|-----------------------------------|
       B|-------0-------0-------0-------0---|
       G|---0-------0-------0-------0-------|
       D|-----0-------0-------0-------0-----|
       A|-----------------------------------|
       E|-3-------3-------3-------3---------|
Verse: e|-----------------------------------|
       B|-------1-------1-------1-------1---|
       G|---0-------0-------0-------0-------|
       D|-----2-------2-------2-------2-----|
       A|-3-------3-------3-------3---------|
       E|-----------------------------------|         

cats and dogs are coming
       e|-----------------------------------|
       B|-------0-------0-------0-------0---|
       G|---0-------0-------0-------0-------|
       D|-----0-------0-------0-------0-----|
       A|-----------------------------------|
       E|-3-------3-------3-------3---------|

down

       e|-----------------------------------|
       B|-------1-------1-------1-------1---|
       G|---0-------0-------0-------0-------|
       D|-----2-------2-------2-------2-----|
       A|-3-------3-------3-------3---------|
       E|-----------------------------------|         

14th street is gonna
       e|-----------------------------------|
       B|-------0-------0-------0-------0---|
       G|---0-------0-------0-------0-------|
       D|-----0-------0-------0-------0-----|
       A|-----------------------------------|
       E|-3-------3-------3-------3---------|

Drown

       e|-----------------------------------|
       B|-------1-------1-------1-------1---|
       G|---2-------2-------2-------2-------|
       D|-----2-------2-------2-------2-----|
       A|-0-------0-------0-------0---------|
       E|-----------------------------------|         

everyone else rushing
       e|-------2-------2-------2-------2---|
       B|---3-------3-------3-------3-------|
       G|-----2-------2-------2-------2-----|
       D|-0-------0-------0-------0---------|
       A|-----------------------------------|
       E|-----------------------------------|         

around

 FAm
  I've got blonde on blonde
 GF
 on my portable stereo
 FAm
 it's a lullaby
 GF
 from a giant golden radio

 CG
 I've got no time i wanna lose
 CG
 to people with something to prove
 AmD
 what can you do but let them talk
 EF
 and make your way down the block

 FAm
 I've got blonde on blonde
 GF
 on my portable stereo
 FAm
 it's a lullaby
 GF
 from a giant golden radio
 FAm
 I've got blonde on blonde
 GF
 on my portable stereo
 FAm
 it's a lullaby
 GF
 from a giant golden radio
 FAm
 I've got blonde on blonde
 GF
 on my portable stereo
 FAm
 it's a lullaby
 GF
 from a giant golden radio
 FAm
 it's a lullaby
 GF
 from a giant golden radio
 FAm
 it's a lullaby
 GF
 from wonder-woman's radio
 FAm
 it's a lullaby
 GF
 from wonder-woman's radio


Am C D E F G
variations - click chord images
Transpose chords:
Tuning:
Cool service:
View: Size:
A  A  A
Rating:
Layout:
  • Currently 2.8/5 Stars.
  • 1
  • 2
  • 3
  • 4
  • 5
 
Accuracy:
  • Currently 2.7/5 Stars.
  • 1
  • 2
  • 3
  • 4
  • 5
 
click stars to rate
Chordie recommends:
Learn to play guitar with video-based, online guitar lessons at JamPlay.com
Songbook:
Login to add this song to your songbook
Support the artist
Preview/buy this song
MSN Music
Why this non-profit ad?

 
login to add comments/video/corrections