Guitar Tabs, Chords and Lyrics


While You Sleep I Destroy Your World   Nailbomb



While You Sleep I Destroy Your World
Nailbomb

Tabbed by: Florent Campana (campana@clotaire.u-nancy.fr)

for guitar detuned 1 step low
Riff 1
------------------------------------------------------
------------------------------------------------------
------------------------------------------------------
------------------------------------------------------
--5-8-4-7---------------------------------------------
--3-6-2-5---------------------------------------------

riff2
---------------------------------------------------------
---------------------------------------------------------
---------------------------------------------------------
---------------------------------------------------------
55-88-44-77----------------------------------------------
33-66-22-55----------------------------------------------

Then the bass plays
--------------------------------------      Max sing
--------------------------------------"shut that fucked up..."
--------------------------------------


Important: The song above is NOT stored on the Chordie server. The original song is hosted at www.guitaretab.com. Chordie works as a search engine and provides on-the-fly formatting. Chordie does not index songs against artists'/composers' will. To remove this song please click here.

This song is displayed as text-only. Transposing and tuning is only available for chordpro-songs.

Login - add to songbook

Rating click stars to rate

Layout
Accuracy

SHARE PAGE  




You need to log in to post comments