Always Something There To Remind Me

Naked Eyes

INTRO
 DCG/BG
e|-----------------|-----------------|-----------------|-----------------|
B|-----3---5-------|-----------------|-----------------|-----------------|
G|-------------3---|---------4---5---|-----4-----------|-----------------|
D|-----------------|-4---5-----------|---------5---2---|-5---4-----------|
A|-----------------|-----------------|-----------------|---------5---3---|
E|-----------------|-----------------|-----------------|-----------------|


 DA/C#CGBb
 I walk along the city streets you used to walk along with me,
 DA/C#CG
 And every step I take reminds me of just how we used to be.
 GD/F#
Oh, how can I forget you, girl
 Em
    When there is

 DG/DD
e|----------------------------------|--------------------------|
B|----------------------------------|-----3--------------------|
G|----------------------------------|---------4----2-----------|
D|----------------------------------|---------------------4----|
A|----------------------------------|--------------------------|
E|----------------------------------|--------------------------|

always something there to remind me

 DA/C#CGBb
 When shadows fall, I pass a small cafe where we would dance at night
 DA/C#CG
 And I can't help recalling how it felt to kiss and hold you tight

 GD/F#EmDG/D
Oh, how can I forget you, girl when there is always something there to
 D
 remind me
Always something there to remind me

 F#mBmGA
I was born to love you, and I will never be free
 D
You'll always be a part of me

If you should find you miss the sweet
And tender love we used to share
Just go back to the places where we used to go,
And I'll be there

Oh, how can I forget you, girl
When there is always something there to remind me
Always something there to remind me

I was born to love you, and I will never be free
You'll always be a part of me

'Cause there is always something there to remind me

Javier Molina
javier.molinachi@gmail.com

A A/C# Bb Bm C D D/F# Em F#m G G/B G/D
variations - click chord images
Transpose chords:
Tuning:
Cool service:
View: Size:
A  A  A
Rating:
Layout:
  • Currently 2.9/5 Stars.
  • 1
  • 2
  • 3
  • 4
  • 5
 
Accuracy:
  • Currently 2.9/5 Stars.
  • 1
  • 2
  • 3
  • 4
  • 5
 
click stars to rate
Chordie recommends:
Check out JamPlay.com for online video guitar lessons
Songbook:
Login to add this song to your songbook
Support the artist
Preview/buy this song
MSN Music
Why this non-profit ad?

 
login to add comments/video/corrections