Guitar Tabs, Chords and Lyrics


Nazi Punks Fuck Off   Napalm Death



                               Napalm Death:
                           Nazi Punks FUCK OFF!!!!
                      (from the Nazi Punks Fuck Off! Ep)

Well, this is one of my fauvorite songs. Very primitive, but very good.
It isn`t too difficult, but Riff 1 is fast. O.K., here it is:

Intro: (x2)

-------------------------------------------------------------
-------------------------------------------------------------
-------------------------------------------------------------
--4---------------------------------------------------4--4---
--2--6--4--6---4--6--6--6---4--6--6--6---4--6--6--6---2--2---
-----4--2--4---2--4--4--4---2--4--4--4---2--4--4--4----------
  x4           x2

Riff 1: (under verse)

-------------------------------------------------------------
-------------------------------------------------------------
-------------------------------------------------------------
-------------------------------------------------------------
--4--6--6---4--6--6---4--6--6---4--4--4----------------------


Important: The song above is NOT stored on the Chordie server. The original song is hosted at www.guitaretab.com. Chordie works as a search engine and provides on-the-fly formatting. Chordie does not index songs against artists'/composers' will. To remove this song please click here.

This song is displayed as text-only. Transposing and tuning is only available for chordpro-songs.

Login - add to songbook

Rating click stars to rate

Layout
Accuracy

SHARE PAGE  




You need to log in to post comments