Guitar Tabs, Chords and Lyrics


Ulterior Exterior   Napalm Death



NOTES:

h - hammer on              p - pull off
v - vibrato                b - bend string
^ - pinch harmonics        p.m. - palm mute
x - muted note             t - right hand tap
/ - slide up               \ - slide down
() - tremolo pick

Tune to C#

Begining under bass:
-|---------------------|
-|---------------------|
-|---------------------|
-|---------------------|
-|-------6-9-9-9-3-3-3-|
-|-------4-7-7-7-1-1-1-|

Riff 1 (x4)
-|---------------------------------|-----------------------------------|
-|---------------------------------|-----------------------------------|
-|---------------------------------|-----------------------------------|
-|---------------------------------|-----------------------------------|
-|---6---8-----4-----6---8-----4---|---6---8-----4-------6-9-9-9-3-3-3-|
-|-5---5---5-3---3-5---5---5-3---3-|-5---5---5-3---3-----4-7-7-7-1-1-1-|

Riff 2a (x2)
-|------------------|------------------|
-|------------------|------------------|
-|------------------|------------------|
-|-----9999---------|-----7777---------|
-|-7777--------8888-|-5555--------5555-|
-|---------6666-----|---------4444-----|

Riff 2b (x2)
-|------------------|------------------|
-|------------------|------------------|
-|------------------|------------------|
-|-----9999---------|-----7777---------|
-|-7777--------8888-|-5555--------5555-|
-|---------6666-----|---------4444-----|
 |                  |                  |
-|------------------|------------------|
-|------------------|------------------|
-|------------------|------------------|
-|-99999999---------|-77777777---------|
-|---------77777777-|------------------|
-|------------------|---------44444444-|

Play Riff 1 (x3)
Play Riff 2 (x4)

Riff 3a
-|-----------------------|-----------------------|
-|-----------------------|-----------------------|
-|-----------------------|-----------------------|
-|---3-4---3----3-4---3--|---3-4---3----3-4---3--|
-|-------5----------5----|-------5----------5----|
-|-1----------1----------|-1----------1----------|

Riff 3b
-|-----------------------|-----------------------|
-|-----------------------|-----------------------|
-|---2-3---2----2-3---2--|---2-3---2----2-3---2--|
-|-------0----------0----|-------0----------0----|
-|-1----------1----------|-1----------1----------|
-|-----------------------|-----------------------|

Riff 3c
-|-----------------------|-----------------------|
-|-----------------------|-----------------------|
-|-----------------------|-----------------------|
-|---2-3---2----2-3---2--|---2-3---2----2-3---2--|
-|-------3----------3----|-------3----------3----|
-|-0----------0----------|-0----------0----------|

Play Riff 3a
Play Riff 3b
Play Riff 3c
Play Riff 3a
Play Riff 1 (x2)
Play Riff 2 (x4)

|-----|
|-----|
|--4--|
|--2--|



Important: The song above is NOT stored on the Chordie server. The original song is hosted at www.guitaretab.com. Chordie works as a search engine and provides on-the-fly formatting. Chordie does not index songs against artists'/composers' will. To remove this song please click here.

This song is displayed as text-only. Transposing and tuning is only available for chordpro-songs.

Login - add to songbook

Rating click stars to rate

Layout
Accuracy

SHARE PAGE  




You need to log in to post comments