Chordie logo

Sluts Of Hell   Nattefrost





The slidedowns in the song arent really correct, but at least the rest of the tab, is
pretty much as the song. Also, this is pretty easy to play.
Not many tabs comes with lyrics so i decided to write down the lyrics as well.
First in the order wich they appear on the song, and at the bottom just all the lyrics
together. If you have any corrections or feedback to make this tab better, please feel
free to comment it.
___________

Slide down/

e|--------------------------------|
h|--------------------------------|
g|--------------------------------|
d|-4-4-4-4-4-4-4-4-4-4-4-4-----5-5| x8
a|-2-2-2-2-2-2-2-2-2-2-2-2-5-5-3-3|
E|-------------------------3-3----|
Filthy bitches of hellish sin
Once again you let me in
Screaming or not...
... I don't give a Fuck!

e|--------------------------------|
h|--------------------------------|
g|--------------------------------|
d|-3-3-3-3-3-3-3-3-3-3-3-3--------| x3
a|-1-1-1-1-1-1-1-1-1-1-1-1-4-4----|
E|-------------------------2-2----|
Sluts of Hell, Cunts of Evil !!!

e|--------------------------------|
h|--------------------------------|
g|--------------------------------|
d|-3-3-3-3-3-3-3-3-3-3-3-3-----5-5| x1
a|-1-1-1-1-1-1-1-1-1-1-1-1-5-5-3-3|
E|-------------------------3-3----|
Sluts of Hell, Slave of Satan !!!

e|--------------------------------|
h|--------------------------------|
g|--------------------------------|
d|-4-4-4-4-4-4-4-4-4-4-4-4-----5-5| x8
a|-2-2-2-2-2-2-2-2-2-2-2-2-5-5-3-3|
E|-------------------------3-3----|
In absence of God
I give you my blood
I take her south
She opens her mouth !!!

e|--------------------------------|
h|--------------------------------|
g|--------------------------------|
d|-3-3-3-3-3-3-3-3-3-3-3-3--------| x4
a|-1-1-1-1-1-1-1-1-1-1-1-1-4-4----|
E|-------------------------2-2----|
Sluts of Hell, Cunts of Evil !!!'
Sluts of Hell, Slave of Satan !!!

e|--------------------------------|
h|--------------------------------|
g|--------------------------------|
d|--------------------------------| x4
a|-4-4-4-4-4-4-4-4-4-4-4-4-5-5----|
E|-2-2-2-2-2-2-2-2-2-2-2-2-3-3----|
Sworn enemy of the Nazarene


e|--------------------------------|
h|--------------------------------|
g|-------------------------5-5----|
d|-------------------------3-3----| x1
a|-3-3-3-3-3-3-3-3-3-3-3-3--------|
E|-1-1-1-1-1-1-1-1-1-1-1-1--------|
Possessed by Satan

e|--------------------------------|
h|--------------------------------|
g|-------------------------5-5----|
d|-------------------------3-3----| x3
a|-2-3-3-3-3-3-3-3-3-3-3-3--------|
E|-0-1-1-1-1-1-1-1-1-1-1-1--------|
Possessed by Hell
Infernal Death, eternal torture

e|--------------------------------|
h|--------------------------------|
g|--------------------------------|
d|--------------------------------| x4
a|-4-4-4-4-4-4-4-4-4-4-4-4-5-5----|
E|-2-2-2-2-2-2-2-2-2-2-2-2-3-3----|
Behind the veil of Death.....

e|--------------------------------|
h|--------------------------------|
g|-------------------------5-5----|
d|-------------------------3-3----| x1
a|-3-3-3-3-3-3-3-3-3-3-3-3--------|
E|-1-1-1-1-1-1-1-1-1-1-1-1--------|
Possessed by Satan

e|--------------------------------|
h|--------------------------------|
g|-------------------------5-5----|
d|-------------------------3-3----| x3
a|-2-3-3-3-3-3-3-3-3-3-3-3--------|
E|-0-1-1-1-1-1-1-1-1-1-1-1--------|
Possessed by Hell
Infernal Death, eternal torture

e|--------------------------------|
h|--------------------------------|
g|--------------------------------|
d|--------------------------------| x4
a|-4-4-4-4-4-4-4-4-4-4-4-4-5-5----|
E|-2-2-2-2-2-2-2-2-2-2-2-2-3-3----|
Behind the gates lies Evil.....


Slidedown/
e|--------------------------------|
h|--------------------------------|
g|--------------------------------|
d|--------------------------------|
a|-4//////////////////////////////|
E|-2//////////////////////////////|

e|--------------------------------|
h|--------------------------------|
g|--------------------------------|
d|-4-4-4-4-4-4-4-4-4-4-4-4-----5-5| x8
a|-2-2-2-2-2-2-2-2-2-2-2-2-5-5-3-3|
E|-------------------------3-3----|
Whores of Hell fell the whip
Sluts of Hell with blood red lips
Leather and Latex I demand
Shut up bitch, I am in command !!!

e|--------------------------------|
h|--------------------------------|
g|--------------------------------|
d|-3-3-3-3-3-3-3-3-3-3-3-3--------| x3
a|-1-1-1-1-1-1-1-1-1-1-1-1-4-4----|
E|-------------------------2-2----|
Sluts of Hell, Cunts of Evil !!!

e|--------------------------------|
h|--------------------------------|
g|--------------------------------|
d|-3-3-3-3-3-3-3-3-3-3-3-3-----5-5| x1
a|-1-1-1-1-1-1-1-1-1-1-1-1-5-5-3-3|
E|-------------------------3-3----|
Sluts of Hell, Slave of Satan !!!

e|--------------------------------|
h|--------------------------------|
g|--------------------------------|
d|--------------------------------| x4
a|-4-4-4-4-4-4-4-4-4-4-4-4-5-5----|
E|-2-2-2-2-2-2-2-2-2-2-2-2-3-3----|
Sworn enemy of the Nazarene !!!

Slidedown/
e|--------------------------------|
h|--------------------------------|
g|--------------------------------|
d|--------------------------------|
a|-4//////////////////////////////|


Important: The song above is NOT stored on the Chordie server. The original song is hosted at www.guitaretab.com. Chordie works as a search engine and provides on-the-fly formatting. Chordie does not index songs against artists/composers will. To remove this song please click here.

This song is displayed as text-only. Transposing and tuning is only available for chordpro-songs.

Login - add to songbook

Rating click stars to rate

Layout
Accuracy

SHARE PAGE  



You need to log in to post comments