Guitar Tabs, Chords and Lyrics


Hair Of The Dog  Nazareth

----------------------------------------------------------------------------



----------------------------------------------------------------------------

e|-----------------------------------------------------------------------|
B|-----------------------------------------------------------------------|
G|-----------------------------------------------------------------------|
D|------------------------2------5b---2-----2----------------------------|
A|-------------------2-------------------5-------------------------------|
E|---0---0---3---4-------------------------------------------------------|x6
e|-----------------------------------------------------------------------|
b|-----------------------------------------------------------------------|
g|-----------------------------------------------------------------------|
d|------------------------7---------10b--7--------7----------------------|
a|--------------------7------------------------10------------------------|
e|--5----5----8--9-------------------------------------------------------|x2
[E5]Now you're mess[E5]in'[G6] wi[A5]th a......a son of a bitch!
[E5]Now you're mess[A5]in'[A5] wi[E5]th a son of a bit[D5]ch!
[E5]Now you're mess[E5]in'[G6] wi[A5]th a......a son of a bitch!
[E5]Now you're mess[A5]in'[A5] wi[E5]th a son of a bit[D5]ch!
(riff 1)

Talkin' jive and poison ivy,
You ain't gonna cling to me,
Man taker, born faker,
I ain't so blind I can't see.

(riff 2)

Red hot mama!
Velvet Charmer!
Times come to pay your dues!

(riff 1)

[E5]Now you're mess[E5]in'[G6] wi[A5]th a......a son of a bitch!
[E5]Now you're mess[A5]in'[A5] wi[E5]th a son of a bit[D5]ch!
[E5]Now you're mess[E5]in'[G6] wi[A5]th a......a son of a bitch!
[E5]Now you're mess[A5]in'[A5] wi[E5]th a son of a bit[D5]ch!

(riff 1)

E5, E5, E5, G6, A5, E5,
E5, G6, A5, E5, D5, A5, G6. x2

(riff 1)

[E5]Now you're mess[E5]in'[G6] wi[A5]th a......a son of a bitch!
[E5]Now you're mess[A5]in'[A5] wi[E5]th a son of a bit[D5]ch!
[E5]Now you're mess[E5]in'[G6] wi[A5]th a......a son of a bitch!
[E5]Now you're mess[A5]in'[A5] wi[E5]th a son of a bit[D5]ch!

(fade into end)

any cooments or problems, dont hesitate to e-mail me.

(address @ top)

Important: The song above is NOT stored on the Chordie server. The original song is hosted at www.guitaretab.com. Chordie works as a search engine and provides on-the-fly formatting. Chordie does not index songs against artists'/composers' will. To remove this song please click here.

Text color:
Chord color:
Chord grids: 
Font size:    
Page size: 

A5 D5 E5 G6
variations - click chord images

Login - add to songbook

Transpose chords

Tuning

Rating click stars to rate

Layout
Accuracy

SHARE PAGE  




You need to log in to post comments