Back To What You Know

Ne

 F#m7add4
e|-0-0---x-x-x-x---0-0--x-x---0--0-0--x-x----|
B|-0-0---x-x-x-x---0-0--x-x---0--0-0--x-x----|
G|-2-2---x-x-x-x---2-2--x-x---2--2-2--x-x----| 2x
D|-4-4---x-x-x-x---4-4--x-x---4--4-4--x-x----|
A|-4-4---x-x-x-x---4-4--x-x---4--4-4--x-x----|
E|-2-2---x-x-x-x---2-2--x-x---2--2-2--x-x----|


 Dbm7
e|--4---x-x-x-x---4----x-x---4--4-----x-x----|
B|--4h5-x-x-x-x---4h5--x-x---4--4h5---x-x----|
G|--4---x-x-x-x---4----x-x---4--4-----x-x----|
D|--6---x-x-x-x---6----x-x---6--6-----x-x----|
A|--4---x-x-x-x---4----x-x---4--4-----x-x----|
E|------x-x-x-x--------x-x------------x-x----|


 Dbm7
e|--4---x-x-x-x---4-----x-x---4--4-----x-x---|
B|--5p4-x-x-x-x---5p4---x-x---5--5p4---x-x---|
G|--4---x-x-x-x---4-----x-x---4--4-----x-x---|
D|--6---x-x-x-x---6-----x-x---6--6-----x-x---|
A|--4---x-x-x-x---4-----x-x---4--4-----x-x---|
E|------x-x-x-x---------x-x------------x-x---|


 F#m7add4
 I don't know where to begin

Fighting a war I cant win
 Dbm7
Right in the memory     of something that used to be
 F#m7add4
 No matter how hard I fight

All of my strength and my might
 Dbm7
It keeps defeating me,     it just keeps defeating me

(Chorus)
 Bsus2
So what I'm trying to say

I know what's happening
 Asus2
Your body is here with me
 F#m7add4
But your heart and your mind is still with him

Go back to what you know
 Dbm7
Go back to where you know your heart is…girl

Just be honest
 F#m7add4
This is impossible

This is impossible
 Dbm7
We'll never work cuz you don't want it….girl

You belong with him
 F#m7add4
So go back to what you know
 Dbm7
Go back to what you know
 F#m7add4
Cuz this is impossible

Telling me things he used to

do When he was with you
 Dbm7
And how he was oh so sweet  

The way that he used to treat you
 F#m7add4
And since you just cant keep him out of your mind
 Abm7
Its obvious to me that I'm not where you want to be 

Baby you don't want me

No, no

(Chorus)
 Bsus2
So what I'm trying to say

I know what's happening
 Asus2
Your body is here with me
 F#m7add4
But your heart and your mind is still with him

Go back to what you know
 Dbm7
Go back to where you know your heart is…girl

Just be honest
 F#m7add4
This is impossible

This is impossible
 Dbm7
We'll never work cuz you don't want it….girl

You belong with him
 F#m7add4
So go back to what you know
 Dbm7
Go back to what you know
 Bsus2
Cuz this is impossible

 Asus2
And if that's really what you want
 Bsus2Asus2
 I will not stand in your way
 F#m7add4
You want to be free

I will let you be
 Asus2
I'd rather your happy

Then miserable with me

 F#m7add4
Back to what you know
 Dbm7
Back to what you know
 F#m7add4
Said back to what you know

Go back to what you know
 Dbm7
Go back to where you know your heart is…girl

Just be honest
 F#m7add4
This is impossible

This is impossible
 Dbm7
We'll never work cuz you don't want it

You don't want me

You belong with him
 F#m7add4
So go back to what you know

Back to what you know
 Dbm7
Go back to what u know

Cuz this is impossible
 Bsus2
Cuz this is impossible

Said ain't no way to make this last
 Asus2
Your stuck in the past

Pedal to the gas
 F#m7add4
And drive away


Abm7 Asus2 Bsus2 Dbm7 F#m7add4
variations - click chord images
Transpose chords:
Tuning:
Cool service:
View: Size:
A  A  A
Rating:
Layout:
  • Currently 2.6/5 Stars.
  • 1
  • 2
  • 3
  • 4
  • 5
 
Accuracy:
  • Currently 5/5 Stars.
  • 1
  • 2
  • 3
  • 4
  • 5
 
click stars to rate
Chordie recommends:
Check out these online guitar lessons
Songbook:
Login to add this song to your songbook
Support the artist
Preview/buy this song
MSN Music
Why this non-profit ad?

 
login to add comments/video/corrections