Guitar Tabs, Chords and Lyrics


Already There   Neclar



Hey this is my first tab from a young band from surrey, they are just so good at what 
do i though i would tab one of there songs, there site is www.neclar.tk

Intro

e---------------------------------------------------|
B---------------------------------------------------|
G---------------------------------------------------|
D--4-x-x--2-x-x-x-x-4-4-x-x-2-x-x-6-x-x-4-x-4-4-4-x-|
A--4-x-x--2-x-x-x-x-4-4-x-x-2-x-x-6-x-x-4-x-4-4-4-x-|
E--2-x-x--2-x-x-x-x-2-2-x-x-0-x-x-4-x-x-2-x-2-2-2-x-|

                                                     x2 1st time in parm mute

e-------------------------------------------------|
B-------------------------------------------------|
G-------------------------------------------------|
D--4-x-x--2-x-x-x-x-4-4-x-x-2-x-x-6-x-7--5--9--9--|
A--4-x-x--2-x-x-x-x-4-4-x-x-2-x-x-6-x-7--9--9--9--|
E--2-x-x--2-x-x-x-x-2-2-x-x-0-x-x-4-x-5--5--5--5--|


Main Riff


e----------------------------------------------|
B----------------------------------------------|
G----------------------------------------------|
D--9--9-x-x-x-7--7-x-x-2--2--2-2--2-2----------|
A--9--9-x-x-x-7--7-x-x-2--2--2-2--2-2----------|
E--7--7-x-x-x-5--5-x-x-0--0--0-0--0-0----------|


Play through most of the song and over the solo

Solo
                                  P        P
e-------------------------------------------------------|
B-------------------------------------------------------|
G--------------9--9--9--9--9--9--9-7--------------------|
D--------------------------------------9--9-7-----------|
A-----------------------------------------------9-------|
E-------------------------------------------------------|

     H   H   H   H     H     Unison bend, keep strumming
e-------------------------------------------------------|
B----------------------------------7--------------------|
G---------------------7-9----------9--------------------|
D---7-9-7-9-7-9-7-9--------9----------------------------|
A-------------------------------------------------------|
E-------------------------------------------------------|


e-------------------------------------------------------|
B----------------------------------7--------------------|
G---------------------7-9----------9--------------------|
D---7-9-7-9-7-9-7-9--------9----------------------------|
A-------------------------------------------------------|
E-------------------------------------------------------|

                           Unison bend again do the same thing as last time.

e-------------------------------------------------------|
B--10-12-10-12-10-12-10-12-10-12-10-12-------7----------|
G--------------------------------------------9----------|
D-------------------------------------------------------|
A-------------------------------------------------------|
E-------------------------------------------------------|

                                                (BU)
e-----------7---------7--------7------7-------7--10-----|
B-------------10-7------10-7-----10-7---10-7------------|
G-------------------------------------------------------|
D-------------------------------------------------------|
A-------------------------------------------------------|
E-------------------------------------------------------|



Important: The song above is NOT stored on the Chordie server. The original song is hosted at www.guitaretab.com. Chordie works as a search engine and provides on-the-fly formatting. Chordie does not index songs against artists'/composers' will. To remove this song please click here.

This song is displayed as text-only. Transposing and tuning is only available for chordpro-songs.

Login - add to songbook

Rating click stars to rate

Layout
Accuracy

SHARE PAGE  




You need to log in to post comments