Chordie logo


Spirit Road   Neil Young



this is the tab for neil young's spirit road song from chrome dreams II(2007)
it's very easy:

Intro, verse, chorus:

Am     D
0------2-------|
1------3-------|
2------2-------|
2------0-------|
0------0-------|
0------x-------|

Lead on Intro:

e ---------------- ---------------- ---------------- ----------------|
b ---------------- ------------3h5- 3---3---3h5-3--- ----------------|
g 2--------------- --------2-5----- --------------5- 2---2---4---2---|
d ---------------- ---------------- ---------------- ----------5-----|
a ---------------- ---------------- ---------------- ----------------|
e ---------------- ---------------- ---------------- ----------------|

e ------------ -----------8-10^12-- 10-10-10^12-10-8--- ------8---------|
b ------------ --------10---------- ------------------- 10------10-8-10-|
g ------------ -------------------- ------------------- ----------------|
d ------------ -------------------- ------------------- ----------------|
a ------------ -------------------- ------------------- ----------------|
e ------------ -------------------- ------------------- ----------------|


The other part between verses (When you're alone You cheat yourself You paint yourself 
a dark, dark place---those parts):

Am, D,
G      E7
3------0-------|
0------0-------|
0------1-------|
0------0-------|
2------2-------|
3------0-------|

Solo: Improvise on Am

Listen to the song to know how to play the chords. it's a long song with the SAME 4 
thru it, so you can do some arrangements with them to make it more interesting.



Important: The song above is NOT stored on the Chordie server. The original song is hosted at www.guitaretab.com. Chordie works as a search engine and provides on-the-fly formatting. Chordie does not index songs against artists/composers will. To remove this song please click here.

This song is displayed as text-only. Transposing and tuning is only available for chordpro-songs.

Login - add to songbook

Rating click stars to rate

Layout
Accuracy

SHARE PAGE  




You need to log in to post comments