Guitar Tabs, Chords and Lyrics


Fishtank   Nelly



E ---------------------------------------------------------------------------|
B ---------------------------------------------------------------------------|
G ---------------------------------------------------------------------------|
D ----2--3-----------------------------------------------------------3--2--3-|
A -3---------2--3--0--2--3---3--2-333-222-33------222--3--0--2--3------------|
E ---------3---------------1-----------------333-------------------1---------|


E --------------------------------------------------------------------------|
B --------------------------------------------------------------------------|
G------------0--------------------------------------------------------------|
D ----2--3-----------------0------------------------------------------------|
A -3---------------2--3-------0--2--3---------3--2--3-----------------------|


Important: The song above is NOT stored on the Chordie server. The original song is hosted at www.guitaretab.com. Chordie works as a search engine and provides on-the-fly formatting. Chordie does not index songs against artists/composers will. To remove this song please click here.

This song is displayed as text-only. Transposing and tuning is only available for chordpro-songs.

Login - add to songbook

Rating click stars to rate

Layout
Accuracy

SHARE PAGE  




You need to log in to post comments