Guitar Tabs, Chords and Lyrics


Annalee  Nerf Herder

G------------------------5-5-----5-5--


D-------5-5-----5-5-------------------


A--------------------3-3-----3-3------


E---3-3-----3-3-----------------------


G-----------------------5-5-----5-5--


D------7-7-----7-7-------------------


A-------------------3-3-----3-3------


E---5-5----5-5-----------------------

[M]    we[G]arin flash pants and her str[C]eetwalker shooo[A]oes[D]
wa[G]lkin downtown with a p[C]ocket full of bo[A]oze[D]
(N)
sh[G]es the one [C] who wants so[A] much[D]
sh[G]es the one [C] y[A]ou can  y[D]ou can never touch
(chorus)
[G]   [C]   [A] here comes [C]annalee
a[G]nnalee  y[C]eaaahh [A] here comes a[C]nnalee
(play 2X)
G------------------------5-5-----5-5--
D-------5-5-----5-5-------------------
A--------------------3-3-----3-3------
E---3-3-----3-3-----------------------
G-----------------------5-5-----5-5--
D------7-7-----7-7-------------------
A-------------------3-3-----3-3------
E---5-5----5-5-----------------------

(verse 2)
[M]    st[G]andin on the corner you s[C]ee her cuttin a d[A]eal[D]
wi[G]ndows rolled down you c[C]ant believe shes for r[A]eal[D]
(N)
s[G]hes the one[C]  it aint no j[A]oke[D]
s[G]hes got lips[C]  l[A]ips  j[D]ust like cherry coke
(chorus)
[G]   [C]   [A]   here come[C]s annalee
a[G]nnalee  y[C]eaaahh [A] here comes a[C]nnalee
a[G]nnalee  y[C]eaaahh [A] here comes a[C]nnalee
a[G]nnalee  y[C]eaaahh  a[A]nnalee  ye[C]aaahh
         an[G]nalee  ye[C]aaahh [A]    [C]   [B]   [G]

Important: The song above is NOT stored on the Chordie server. The original song is hosted at www.guitaretab.com. Chordie works as a search engine and provides on-the-fly formatting. Chordie does not index songs against artists'/composers' will. To remove this song please click here.

Text color:
Chord color:
Chord grids: 
Font size:    
Page size: 

A B C D G
variations - click chord images

Login - add to songbook

Transpose chords

Tuning

Rating click stars to rate

Layout
Accuracy

SHARE PAGE  




You need to log in to post comments