Guitar Tabs, Chords and Lyrics


Van Halen  Nerf Herder

A------------3-5--5-5-5-1-2--2-2-2-2--3--3-3-3-2--


E---3--3-3-3--------------------------------------


A------------3-5--5-5-5-1-2--2-2-2-2--3-2-3-5-3-2-


E---3--3-3-3--------------------------------------


A---------------------------


E---3~---3-5-3---3-3/5-5-5\3

[G]two-hand tapping  guitar technique
really got me off erection yeah
D~ C~ CCCCCCCCC
aint talkin bout love im on fire
(chorus)
tom[G]orrow may c[D]ome [B] tom[C]orrow may n[G]ever c[D]ome[B]  ag[C]ain
cant you h[G]ear jamie c[D]ryin [B] shes r[C]unnin with the d[G]evil
oh l[D]oooooo[B]rd  oh lo[C]oord
A---------------------------
E---3~---3-5-3---3-3/5-5-5\3

(verse 2)
i bought women and children first fair warning
and van halen two dance the night away
1[G]984 my favorite record  yeah  i wore it down
might as well jump might as well jump
(chorus)
tom[G]orrow may c[D]ome [B] tom[C]orrow may n[G]ever c[D]ome[B]  ag[C]ain
      E---15--------14---11----12
      B--------------------------

cant you h[G]ear jamie c[D]ryin [B] shes r[C]unnin with the d[G]evil
oh l[D]oooooo[B]rd  oh lo[C]oord
(verse 3)
is this what you wanted? sammy hagar
sammy hagar is this what you wanted man
dave lost his hairline but you lost your cool buddy
D*
cant drive '55 ill never buy your lousy records
A--------5------2------------3------------------------5--
E--3--------------------------------------3--------------

again again again never again never again never again
A-------2------------3-------------------------5------------2--
E---------------------------------3--------------------

never again never again never again never again never again
A-------3-------------------------5-----------2--
E--------------------3---------------------------           C

never again never again never again never again never again
no no no
(chorus)
tom[G]orrow may c[D]ome [B] tom[C]orrow may n[G]ever c[D]ome[B]  ag[C]ain
      E---15--------14---11----12
      B--------------------------

cant you h[G]ear jamie c[D]ryin [B] shes r[C]unnin with the d[G]evil
oh l[D]oooooo[B]rd  oh lo[C]oord
solo (play this twice)
E---3---3---3---3---3---3---3---3---2---2---2---2----
B-----3---3---3---3---3---3---3---3---3---3---3---3--
E---2---2---2---2---2---2---2---2---2---2---2---2----
B-----3---3---3---3---4---4---4---4---4---4---4---4--
E---3---3---3---3---3---3---3---3----
B-----5---5---5---5---5---5---5---5--

(ending)
j[G]ump  jump  ju[D]mp  jump  j[B]ump  jump  j[C]ump  might as well
j[G]ump  jump  ju[D]mp  jump  j[B]ump  jump  j[B]ump  might as well
                       ju[G]-ump

Important: The song above is NOT stored on the Chordie server. The original song is hosted at www.guitaretab.com. Chordie works as a search engine and provides on-the-fly formatting. Chordie does not index songs against artists'/composers' will. To remove this song please click here.

Text color:
Chord color:
Chord grids: 
Font size:    
Page size: 

B C D G
variations - click chord images

Login - add to songbook

Transpose chords

Tuning

Rating click stars to rate

Layout
Accuracy

SHARE PAGE  




You need to log in to post comments