Oh Me Oh My

Nervewreck

-------------

 G#CBbmG#FmGBbmC#CmC#EbFDmGCFDGCF
 G#CBbmG#FmG
e|------------------------------------------------------------------------|
B|------------------------------------------------------------------------|
G|--8---8-7-8-10-8~--8-8-8--9-5-5~--9-8-6-5-6-5-6-5-6-8-5~--5-5-5-----2~--|
D|----------------------------------------------------------------3~------|
A|------------------------------------------------------------------------|
E|------------------------------------------------------------------------|

 BbmC#CmC#E
e|------------------------------------------------------------------------|
B|--4-2-2/6--2-4-2-4-2---2-4-2-4/6---2-4-2-4-2----------------------------|
G|---------------------------------------------5-3----3-3h5p3----3-3h5p3--|
D|---------------------5---------------------------5----------6-----------|
A|------------------------------------------------------------------------|
E|------------------------------------------------------------------------|

 F
e|---------------------------------|
B|---------------------------------|
G|--3h5p3-3h5p3-3h5p3-2~-----------|
D|--------------------------3-2-0--|
A|---------------------------------|
E|---------------------------------|


 DmG
 Sit on the porch, smoke cigarettes
 CF
 Watching the cops drive by outside
 BbmF
 Oh me oh my
 DmG
 Thinking of night, the devil's delight
 CF
 Watching the bugs fly by your eye
 BbmFBbmEb
 Oh me oh my, oh me oh my
 G#C
 Run along babe, the sun is gone
 BG#FmG
Carry on,   you're so far from home   
 BbmC#
 Sleep, we'll be together in a dream
 Cm
We'll be together when we wake up
 C#EbF
In a cloud on the ground  

You're safe in your house, your dog and your mouse
Painting a musical night, alright
Oh me oh my
You think of your mother, your dog and your brother
And suddenly youre outside, alright
Oh me oh my, oh me oh my
Run along babe, the sun is gone
Carry on, you're so far from home
Sleep, we'll be together in a dream
We'll be together when we wake up
In a cloud on the ground

:Piano Break:

 EbCFG#
Dm Gm Cm C#7 F#m Eb C F G# x3

B Bbm C C# Cm D Dm E Eb F Fm G G#
variations - click chord images
Transpose chords:
Tuning:
Cool service:
View: Size:
A  A  A
Rating:
Layout:
  • Currently 3.3/5 Stars.
  • 1
  • 2
  • 3
  • 4
  • 5
 
Accuracy:
  • Currently 2.5/5 Stars.
  • 1
  • 2
  • 3
  • 4
  • 5
 
click stars to rate
Chordie recommends:
Learn how to play guitar at JamPlay.com
Songbook:
Login to add this song to your songbook
Support the artist
Preview/buy this song
MSN Music
Why this non-profit ad?

 
login to add comments/video/corrections