Guitar Tabs, Chords and Lyrics


From California Acoustic  New Amsterdams

|--------------------------------------------------------------------------------|


|--------------------------------------------------------------------------------|


|---------------------------0---0---0---0-----2---2---2---2-------0---0---0---0--|

|-------0----0---0---0-----2---2---2---2-----4---4---4---4-------2---2---2---2---|
|------2----2---2---2-----3---3---3---3-----5---5---5---5-------3---3---3---3----|
|-----3----3---3---3-------------------------------------------------------------|
|----------------------------------------------------------------------|
|----------------------------------------------------------------------|
|--------12-11-9-7-5-4--4-5-7-5-4-2--2-4-5-4-2-4-4/5-4-2-0-------------|
|----------------------------------------------------------------------|
|----------------------------------------------------------------------|
|----------------------------------------------------------------------|
Uncom[G]mon amount of the time at home, ha[C]rdly a word on the telephone.
F[D]inally find the time to get to kn[C]ow you.
Still map[G]ping it out like a master plan,
something to do w[C]ith my idle hands.
Write you a lett[D]er addressed from Cal[C]ifornia.
Solo

It's [G]vivid and strong in my memory,
an abse[C]nce that smacks of abandoning.
It [D]let to the battle that ultimately destroyed u[C]s.
I'm not[G]hing if I don't know your mistakes,
the pill[C] is as bitter as I can take.
It t[D]wists like a blade when I leave for Califo[C]rnia.

Strum these chords.

[G]La[F] d[Em]a l[D]a [C]la[B] d[A]a [G]da
Back to verse style

I ho[G]pe that you know this is killing me,
it's [C]all in the name of the family.
We only[D] can play the cards the dealer dea[C]lt us.
The e[G]nd of the cycle is closing in, with y[C]ou I see new hope begin again.
There [D]suddenly seems to be promise in Cal[C]ifornia.

Strum the rest of the song.

[G]La[F] d[Em]a l[D]a [C]la[B] d[A]a [G]da

[G]As heavy as all this is [F]weighing me,
be[Em]lieve in the words I am [D]promising.
I[C]'m [B]still [A]here for h[G]er.
Th[G]e distance is only an[F] obstacle,
ha[Em]rdly a match for a [D]miracle.
I'[C]m fi[B]nally [A]ready to go to Cal[G]ifornia.

Important: The song above is NOT stored on the Chordie server. The original song is hosted at www.guitaretab.com. Chordie works as a search engine and provides on-the-fly formatting. Chordie does not index songs against artists'/composers' will. To remove this song please click here.

Text color:
Chord color:
Chord grids: 
Font size:    
Page size: 

A B C D Em F G
variations - click chord images

Login - add to songbook

Transpose chords

Tuning

Rating click stars to rate

Layout
Accuracy

SHARE PAGE  




You need to log in to post comments