Guitar Tabs, Chords and Lyrics


Has Anyone Seen My Wings   New Amsterdams



----------------------------------------------------------------------------
                Has anyone seen my wings - The New Amsterdams
----------------------------------------------------------------------------
Tabbed by: PMFrenette

Tuning: Capo 4 (or buy a banjo)
Listen to the song to get the rythm, it's pretty easy and straight forward.


             Intro/Verse_______________________
             1.2.3.
e|----------|----------------------------------|
B|--------2-|------------2---------------2-----|
G|------2---|------2-------2-------2-------2---| x2 intro
D|----2-----|----2---2-------2---2---2-------2-| x3 verse
A|--0-------|--0-------0-------4-------4-------|
E|----------|----------------------------------|
  ___________________________________________________ _______________
  1.2.3.                                              |1.2.
e|-------------------------------------------------------------------|
B|------2-------2-------2-------2-------2-------2-------------2------|
G|----2---2---2---2---2---2---2---2---2---2---2---2-----2-------2----|
D|--4-------2-------0-------0-------4-------2---------2---2-------2--|
A|--------------------------------------------------0-------0--------|
E|-------------------------------------------------------------------|
  ___________________
  2.
e|-------------------|
B|------------2------|
G|------2-------2----| 
D|----2---2-------2--| 
A|--0-------0--------|
E|-------------------|


   Chorus
e|-------------------------------------------------------------------|
B|------2-------2-------2-------2-------2-------2-------2-------2----|
G|----2---2---2---2---2---2---2---2---2---2---2---2---2---2---2---2--|
D|--0-------0-------0-------0-------2-------2-------2-------2--------|
A|-------------------------------------------------------------------|
E|-------------------------------------------------------------------|

  __________________________________________________ ________________
  1.2.                                               |2.
e|-------------------------------------------------------------------|
B|------0-------0-------0-------0-------0-------0-------2-------2----|
G|----2---2---2---2---2---2---2---2---2---2---2---2---2---2---2---2--|
D|--3-------3-------3-------3-------4-------4-------0-------0--------|
A|-------------------------------------------------------------------|
E|-------------------------------------------------------------------|




i'm a saint, i'm a bonified seraphim
an angel on a bar stool, anyone seen my wings?
i'm always losing the damn things

i'm the glue i'm a permanent fixture
i'm an anchor in the concrete if i went to find my fate
the foundation would break


alies
i never had none
but that would be one to see
yeah

i'm your fate yeah, your looking in the future
there's a bitter old man who's under your skin
but don't let him in


capsize
did anyone catch me?
nobody broke my fall
yeah


i'm a saint on a mission from the head man
you got a shoe start running boy leave him to us


Important: The song above is NOT stored on the Chordie server. The original song is hosted at www.guitaretab.com. Chordie works as a search engine and provides on-the-fly formatting. Chordie does not index songs against artists'/composers' will. To remove this song please click here.

This song is displayed as text-only. Transposing and tuning is only available for chordpro-songs.

Login - add to songbook

Rating click stars to rate

Layout
Accuracy

SHARE PAGE  




You need to log in to post comments