Chordie logo

Apocalyptic Dipstick   New Bomb Turks



-------------------------------------------------------------------------------
			     Apocalyptic Dipstick - The New Bomb Turks
-------------------------------------------------------------------------------
Tabbed by: Richard (opivy21)

Tuning:Standard (EADGBe)

Intro and Verse
e|--------------------------------------------------------------------------|
B|--------------------------------------------------------------------------|
G|---7----------------------------------------------------------------------|
D|---7--7--9-9-9-4444444----------------------------------------------------|
A|---5--7--9-9-9-4444444----------------------------------------------------|
E|------5--7-7-7-2222222----------------------------------------------------|

Chorus
e|--------------------------------------------------------------------------|
B|--------------------------------------------------------------------------|
G|----66666666--44444444----------------------------------------------------|
D|----66666666--44444444----X Three-----------------------------------------|
A|----44444444--22222222----------------------------------------------------|
E|--------------------------------------------------------------------------|

4th Time
e|--------------------------------------------------------------------------|
B|--------------------------------------------------------------------------|
G|----77777777------99999999------------------------------------------------|
D|----77777777---9--99999999------------------------------------------------|
A|----55555555---9--77777777------------------------------------------------|
E|---------------7----------------------------------------------------------|

This is a simple song, just fast. I always just make up the solo. It's in F# if you want 
figure it out or just mess around.  Have fun and deep listening to the Bomb Turks.

| /  slide up
| \  slide down
| h  hammer-on
| p  pull-off
| ~  vibrato
| +  harmonic
| x  Mute note


Important: The song above is NOT stored on the Chordie server. The original song is hosted at www.guitaretab.com. Chordie works as a search engine and provides on-the-fly formatting. Chordie does not index songs against artists/composers will. To remove this song please click here.

This song is displayed as text-only. Transposing and tuning is only available for chordpro-songs.

Login - add to songbook

Rating click stars to rate

Layout
Accuracy

SHARE PAGE  

You need to log in to post comments