Chordie logo


Cry Me A River   New Found Glory



Mabuhay ang mga PINOY!!!

Tab by Tim
Enjoy it!!!

email add: timlloyd_pangan@yahoo.com
friendster: timlloyd_pangan@yahoo.com

New Found Glory - Cry me a river (cover)

(original Justin Timberlake)

Intro :

Drumbeat

Lead guitar:
e|---------------------------------------|
B|---------------------------------------|
G|---------------------------------------|
D|---------------------------------------|
A|--------4-6--7-6-4--2-6-4-2------------|
E|--4-6-7---------------------2-6-4-2-4-2|
    * * *      * *    * * *   * * * * *

Verse 1:

Lead and Rhythm guitar

e|--------------------------|
B|--------------------------|
G|--------66666-------------|
D|--------44444-22222-------|
A|--66666-------22222-444444|
E|--44444-------00000-222222| (x4)
    ****  ****  ****  **** *

Pre-chorus 1:

Lead guitar

e|--------------------------------|------------------xxx--------------|
B|--------------------------------|------------------xxx--------------|
G|--------------------------------|------------------xxx--------------|
D|-------------------------------6|------------------xxx-------666----|
A|--------4-6--7-6-4-7-6-4-7-6-4--|-------4-6--7-6-4-xxx-7-6-4-444-444|
E|--4-6-7-------------------------|-4-6-7------------xxx-----------222|

Chorus 1:

Lead and Rhythm guitar

e|-----------------------------|
B|-----------------------------|
G|-----------------------------|
D|---------666666-222222-------|
A|--666666-444444-222222-444444|
E|--444444--------000000-222222| (x6)

Verse 2:

Lead and Rhythm guitar

e|--------------------------|
B|--------------------------|
G|--------66666-------------|
D|--------44444-22222-------|
A|--66666-------22222-444444|
E|--44444-------00000-222222| (x4)
    ****  ****  ****  **** *

Lead guitar (on the third line)

e|------------------|
B|------------------|
G|------------------|
D|------------------|
A|--------4-6--7-6-4|
E|--4-6-7-----------|

Pre-chorus 2:

e|--------------------------------|------------------------xxx--------|
B|--------------------------------|------------------------xxx--------|
G|--------------------------------|------------------------xxx--------|
D|-------------------------------6|------------------------xxx-666----|
A|--------4-6--7-6-4-7-6-4-7-6-4--|-------4-6--7-6-4-7-6-4-xxx-444-444|
E|--4-6-7-------------------------|-4-6-7------------------xxx-----222|

Chorus 2:

Lead and Rhythm guitar

e|-----------------------------|
B|-----------------------------|
G|-----------------------------|
D|---------666666-222222-------|
A|--666666-444444-222222-444444|
E|--444444--------000000-222222| (x6)

Bridge :

Lead guitar

e|--------------------------------|
B|--------------------------------|
G|--------------------------------|
D|-------------------------------6|
A|--------4-6--7-6-4-7-6-4-7-6-4--|
E|--4-6-7-------------------------| (x3)
    * * *      * *   * *   * *

Rhythm guitar (on the third line, i'm not sure about this)

e|----------------------------------|
B|----------------------------------|
G|----------------------------------|
D|--6666666-4444444-6666666-8888-999|
A|----------------------------------|
E|----------------------------------|
    ******* ******* ******* **** ***

Lead guitar (on the last line)

e|--------------------------------|
B|--------------------------------|
G|--------------------------------|
D|-------------------------666----|
A|-------4-6--7-6-4-7-6-4--444-444|
E|-4-6-7-----------------------222|
   * * *      * *   * *
Chorus 3:

Lead and Rhythm guitar

e|-----------------------------|
B|-----------------------------|
G|-----------------------------|
D|---------666666-222222-------|
A|--666666-444444-222222-444444|
E|--444444--------000000-222222| (x6)

Lead guitar 

e|--------------------------------|
B|--------------------------------|
G|--------------------------------|
D|-------------------------------6|
A|--------4-6--7-6-4-7-6-4-7-6-4--|
E|--4-6-7-------------------------|

Lead and Rhythm guitar (on the last line)

e|-----------------------------------------|
B|-----------------------------------------|
G|-----------------------------------------|
D|--------------------------66-------------|
A|--------4-6--7-6-4-7-6-4--44-44-------4-6|
E|--4-6-7----------------------22-4-6-7----|

Legend:

"*" - palm mute
"x" - dead string



Important: The song above is NOT stored on the Chordie server. The original song is hosted at www.guitaretab.com. Chordie works as a search engine and provides on-the-fly formatting. Chordie does not index songs against artists/composers will. To remove this song please click here.

This song is displayed as text-only. Transposing and tuning is only available for chordpro-songs.

Login - add to songbook

Rating click stars to rate

Layout
Accuracy

SHARE PAGE  




You need to log in to post comments