True Faith

New Order

 eadgbe   eadgbe   eadgbe   eadgbe   eadgbe   eadgbe   eadgbe
xx0231 xx3211 x32010 320033 x13331 x02210 x02220

 I feel so extraordinary
 Something's got a hold on me  
 I get this feeling I'm in motion
 A sudden sense of liberty 
 I don't care 'cause I'm not there
 And I don't care if I'm here tomorrow
 Again and again I've taken too much
 Of all the things that cost you too much

 I used to think that the day would never come
 I'd see delight in the shade of the morning sun
 My morning sun is the drug that brings me near
 To the childhood I lost, replaced by fear
 I used to think that the day would never come
 That my life would depend on the morning sun

When I was a very small boy,
Very small boys talked to me
Now that we've grown up together
They're afraid of what they see
That's the price that we all pay
And the value of destiny comes to nothing
I can't tell you where we're going
I guess there was just no way of knowing

Repeat Chorus

C, G, C, G
C, Am, (A)

E --------------------------------------
B --------------------------------------
G --------------------------------------
D ------3-5---5-3-2-3-0---2---3---------
A ---5---------------------------0-3----
E --------------------------------------

I feel so extraordinary
Something's got a hold on me
I get this feeling I'm in motion
A sudden sense of liberty
The chances are we've gone too far
You took my time and you took my money
Now I fear you've left me standing
In a world that's so demanding

Repeat Chorus, then G until end

Outro over G:
E --------------------------------------------
B --------------------------------------------
G --------------------------------------------
D --------------------------------------------
A ------3--5---2-3-2-0---2-3-2-0---2-3-5-3----
E ---5-------------------------------------3--				

A Am Bb C Dm F G
variations - click chord images
Transpose chords:
Cool service:
View: Size:
A  A  A
  • Currently 5/5 Stars.
  • 1
  • 2
  • 3
  • 4
  • 5
  • Currently 1/5 Stars.
  • 1
  • 2
  • 3
  • 4
  • 5
click stars to rate
Login to add this song to your songbook
IMPORTANT: The song above is NOT stored on the Chordie server. The original song is hosted at Chordie works as a search engine and provides on-the-fly formating. Chordie does not index songs against artists/composers will. To remove this song please click here.

login to add comments/video/corrections