Chordie logo


Back From Exile   Nickel Eye



-------------------------------------------------------------------------------
			     back from exile - nickel eye
-------------------------------------------------------------------------------
Tabbed by:adruz olvera
Email:deliveryguitar2@hotmail.com

Tuning:standar

intro

e|-4-4--4----5-5--5----|
B|-5-5--5----5-5--5----|
G|-6-6--6----6-6--6----|   (x4)     
D|-6-6--6----7-7--7----|
A|-4-4--4-4--7-7--7----|
E|-4-4--4--7-5-5--5----|

verso
   let me tell you....
e|-4-4--4----5-5--5------------|
B|-5-5--5----5-5--5------------|
G|-6-6--6----6-6--6------------|
D|-6-6--6----7-7--7------------|
A|-4-4--4-4--7-7--7------------|
E|-4-4--4--7-5-5--7------------|

precoro
hell mother$·%   cause im back from exile
e|-4-------------------------5-------------|
B|-5-------------------------5-------------|
G|-6-------------------------6-------------|
D|-6-------------------------7-------------|
A|-4-------------------------7-------------|
E|-4-------------------------5-------------|

coro
  back from exile.......   
e|-4-4-4-4--5-5-5-5--------|
B|-5-5-5-5--5-5-5-5--------|
G|-6-6-6-6--6-6-6-6--------|
D|-6-6-6-6--7-7-7-7--------|
A|-4-4-4-4--7-7-7-7--------|
E|-4-4-4-4--5-5-5-5--------|

verso
   if the water steal...
e|-4-4--4-----5-5--5-------------|
B|-5-5--5-----5-5--5-------------|
G|-6-6--6-----6-6--6-------------|
D|-6-6--6-----7-7--7-------------|
A|-4-4--4-4---7-7--7-------------|
E|-4-4--4---7-5-5--5-------------|

pre coro
 hell mother f·$%  cause im back from exile
e|-4-------------------------5--------------|
B|-5-------------------------5--------------|
G|-6-------------------------6--------------|
D|-6-------------------------7--------------|
A|-6-------------------------7--------------|
E|-4-------------------------5--------------|

coro
  back from exile.......
e|4-4-4-4----5-5-5-5---------|
B|5-5-5-5----5-5-5-5---------|
G|6-6-6-6----6-6-6-6---------|
D|6-6-6-6----7-7-7-7---------|
A|4-4-4-4----7-7-7-7---------|
E|4-4-4-4----7-7-7-7---------|

puente

e|-------------------------------------|
B|-------------------------------------|
G|-------6-66666-----------------------|
D|9-9-99-6-66666-9-99999-6-66-7-77-----|
A|9-9-99-4-44444-9-99999-6-66-7-77-----|
E|7-7-77---------7-77777-4-44-5-55-----|

solo

e|------------------------------------------------------------------------|
B|--5-5-5-5-7---5-5-7---5-5-5-7-------------------------------------------|
G|-6-6-6-6---6-6-6---6-6-6-6----------------------------------------------|
D|------------------------------------------------------------------------|
A|--------------------------------9-7---------9-7--------9----------------|
E|------------------------------------9-7-7-9-----9-7-7-9---------------|

verso
precoro
coro
puente

el solo es algo asi tratare de sacarlo bien

http://www.myspace.com/officialnickeleye



Important: The song above is NOT stored on the Chordie server. The original song is hosted at www.guitaretab.com. Chordie works as a search engine and provides on-the-fly formatting. Chordie does not index songs against artists/composers will. To remove this song please click here.

This song is displayed as text-only. Transposing and tuning is only available for chordpro-songs.

Login - add to songbook

Rating click stars to rate

Layout
Accuracy

SHARE PAGE  




You need to log in to post comments