Guitar Tabs, Chords and Lyrics
Major upgrade!! After one year development the new version of Chordie is now online! Please give feedback.


Rockstar   Nickelback


----0----0----0----0------------------------|

----3----0----1----3------------------------|

----4----5----2----4------------------------|

----5----5----3----5------------------------|

----5----3----3----5------------------------|

----3----0----1----3------------------------|





    [G]     [C]     [F]     [G]                  


I'm through with [G]standing in line to clubs we'll never get in


It's like the [C]bottom of the ninth and I'm never gonna win


This [F]life hasn't turned out quite the way I want it to [G]be




I want a [G]brand new house on an episode of Cribs


And a [C]bathroom I can play baseball in


And a [F]king size tub big enough for ten plus [G]me




I'll need a [G]credit card that's got no limit


And a [C]big black jet with a bedroom in it


Gonna [F]join the mile high club at 37,000 [G]feet


I want a [G]new tour bus full of old guitars


My own [C]star on Hollywood Boulevard


Some[F]where between Cher and James Dean is fine for [G]me


Pre-Chorus


                                                                      


----0-----0----------------------|

----6-----8----------------------|

----7-----9----------------------|

----8-----10---------------------|

----8-----10---------------------|

----6-----8----------------------|





    [A#]      [C]                          


I'm gonna [A#]trade this life for fortune and fame


         C~


I'd even cut my hair and change my name






Chorus


                                                                      


----0----0----0----0----0-------|

----3----6----1----4----1-------|

----4----7----0----0----2-------|

----5----8----2----5----3-------|

----5----8----3----6----3-------|

----3----6----3----6----1-------|





    [G]     [A#]     [C]     [D#]     [F]            


'Cause we [G]all just wanna be big rockstars


And live in [A#]hilltop houses driving fifteen cars


The [C]girls come easy and the drugs come cheap


We'll [D#]all stay skinny 'cause we [F]just won't eat


And we'll [G]hang out in the coolest bars


In the [A#]VIP with the movie stars


Every [C]good gold digger's gonna wind up there


Every [D#]Playboy bunny with her [F]bleach blond hair






                                                                      


----0-----0-----0-----------------|

----6-----8-----3-----------------|

----7-----9-----4-----------------|

----8-----10----5-----------------|

----8-----10----5-----------------|

----6-----8-----3-----------------|





    [A#]      [C]      [G]                    


[A#]Hey, [C]hey, I wanna be a rock[G]star


[A#]Hey, [C]hey, I wanna be a rock[G]star






Bridge


                                                                     


----0-----0-----0-----0------------|

----4-----6-----1-----1------------|

----0-----7-----0-----2------------|

----5-----8-----2-----3------------|

----6-----8-----3-----3------------|

----6-----6-----3-----1------------|



Important: The song above is NOT stored on the Chordie server. The original song is hosted at www.guitaretab.com. Chordie works as a search engine and provides on-the-fly formatting. Chordie does not index songs against artists'/composers' will. To remove this song please click here.

This song is displayed as text-only. Transposing and tuning is only available for chordpro-songs.
Rate #1 of 12 versions

Jango Player

Login - add to songbook

SHARE PAGE  




You need to log in to post comments

rose727 (report)

missing cords and the verse that has bodyguards that beat up asshole and elvis without the tassels. i would improve if i new all words and cords not have to look up on chordie thanks