Biar Semua Hilang

Nicky Astria

 AmDmAmEAmEAm
 Guitar 1         
-------------------------------------------------------------------|
----5-----5-6--5-------------------------1p0-------0---------------|
--------5--------7-5-4-5-7--5-4-/4/2-2-------2-1-2----2-1h2-2------|
--7---7------------------------------------------------------------|
--0----------------------------------------------------------------|
-------------------------------------------------------------------|


(during with piano arranged for guitar) (guitar 1)
--0---0---0-----------0-------------|--0--------------------0---------|
----3---1---0--0h1------0-h1--------|----3-3p1-1-1p0-0-h1------0-h1---|
-------------------2---------2------|---------------------2--------2--|
------------------------------------|---------------------------------|
------------------------------------|---------------------------------|
------------------------------------|---------------------------------|


Verse

 AmAm/F
 Akhirnya semua telah sirna 
 AmE/Am7
 Getar asmara pun pudar didalam dada
 DmAm
 Dan diantara kita tlah tak ada
 B/Dsus7E
 Rasa saling se iya se kata

 AmAm/F
 Hari ini atau esok lusa
 AmE/Am7
 Kita kan berpisah untuk selama-lamanya
 DmAm
 Agar tak kan lagi kurasa
 EAmAsus9
 Luka derita hidup bersama      

Reff

 AmGFEAmAsus9
Usah lagi perpisahan jadi beban dihati    
Am G F E Am Fill Bass : A B C#/Esus
Tak kan lagi ada harapan kita tuk kembali

 C#/EsusDmGC
 Biar semua hilang bagai mimpi-mimpi
Fmaj7 B/Dsus7 E Am Fill Bass : A B C#/Esus
Biar semua hilang Usah kau sesali
 C#/EsusDmGC
 Biar semua hilang bagai mimpi-mimpi
 Fmaj7B/Dsus7EAm
 Biar semua hilang Usah kau sesali

Solo Dm G F Bm E Am

--15br--15br-15^^--15-15-15--13-13-13--12-12-12--10-10-10-(10/9)--10/12-12br-|
-----------------------------------------------------------------------------|
-----------------------------------------------------------------------------|
-----------------------------------------------------------------------------|
-----------------------------------------------------------------------------|
-----------------------------------------------------------------------------|
--13/12-12--12/10-10--10/8-8--8/7-7^--7br----------|
-------------------------------------------10^-----|
---------------------------------------------------|
---------------------------------------------------|
---------------------------------------------------|
---------------------------------------------------|


Verse 3
 AmAm/F
 Hari ini atau esok lusa
 AmE/Am7
 Kita kan berpisah untuk selama-lamanya
 DmAm
 Agar tak kan lagi kurasa
 EAmAsus9
 Luka derita hidup bersama      


Am Am/F Asus9 C Dm E F Fmaj7 G
variations - click chord images
Transpose chords:
Tuning:
Cool service:
View: Size:
A  A  A
Rating:
Layout:
  • Currently 2.7/5 Stars.
  • 1
  • 2
  • 3
  • 4
  • 5
 
Accuracy:
  • Currently 3/5 Stars.
  • 1
  • 2
  • 3
  • 4
  • 5
 
click stars to rate
Chordie recommends:
Learn to play guitar with video-based, online guitar lessons at JamPlay.com
Songbook:
Login to add this song to your songbook
Support the artist
Preview/buy this song
MSN Music
Why this non-profit ad?

 
login to add comments/video/corrections