Dsus6/7Bsus7
Padamu diriku tak pernah coba memahami hatimu
 E/CsusA7sus6
Padamu diriku terlalu membuat kau resah denganku
 Dsus6/7Bsus7
Padamu diriku senantiasa menggekang kebebasanmu
 E/CsusA7sus6
Padamu diriku tak ikhlas bernaung dalam percintaan
 Dsus6/7Bsus7E/CsusA7sus6
Engkau terbelenggu ohh.....       

 Dsus6/7Bsus7
Padaku dirimu tak pernah menilai kasih dan sayangku
 E/CsusA7sus6
Padaku dirimu sengaja membuat kurasa keliru
 Dsus6/7Bsus7
Padaku dirimu terlupa betapa kucinta padamu
 E/CsusA7sus6
Padaku dirimu terlalu menyirat kesilapanku

Reff :
 DBm
Karena kau kau kau terlalu egois
 GA
Mengapa kau kau kau terlupa romantis
 DBm
Terlalu kau kau kau menyanyangi aku
 GA
Sehingga kau kau kau menjadi cemburu

 DBm
Dikala aku....masih menyintaimu
 GA
 Aku masih setia padamu
 DBm
Usah engkau tarik jemariku untuk cinta suci
 GAD
 Usah biarkan keruh mendekati dijiwamu

Solo.
 DBmGA
    []           []                     
--------------------------12^-10-10^--------------------------------------|
--------------10/12-10^---12^----------15-15-15--14-14-14--12-12-12^------|
-----------11-------------------------------------------------------------|
--12-12-12----------------------------------------------------------------|
--------------------------------------------------------------------------|
--------------------------------------------------------------------------|
--------------------------------------------|
--10h12--10-------12--10---------8/10^------|
---------------11^--------11-9-7------------|
--------------------------------------------|
--------------------------------------------|
--------------------------------------------|


Verse 3

 Dsus6/7Bsus7
Padaku dirimu tak pernah menilai kasih dan sayangku
 E/CsusA7sus6
Padaku dirimu sengaja membuat kurasa keliru
 Dsus6/7Bsus7
Padaku dirimu terlupa betapa kucinta padamu
 E/CsusA7sus6
Padaku dirimu terlalu menyirat kesilapanku

Reff :
 DBm
Karena kau kau kau terlalu egois
 GA
Mengapa kau kau kau terlupa romantis
 DBm
Terlalu kau kau kau menyanyangi aku
 GA
Sehingga kau kau kau menjadi cemburu

 FDm
Dikala aku....masih menyintaimu
 BbC
 Aku masih setia padamu
 FDm
Usah engkau tarik jemariku untuk cinta suci
 BbCFDmBb
 Usah biarkan keruh mendekati dijiwamu      

outro:
 CFDmBb
Biarkan keruh mendekati dijiwamu    
 CFDmBb
Biarkan keruh mendekati dijiwamu   


A Bb Bm Bsus7 C D Dm F G
variations - click chord images
Transpose chords:
Tuning:
Cool service:
View: Size:
A  A  A
Rating:
Layout:
  • Currently 3.9/5 Stars.
  • 1
  • 2
  • 3
  • 4
  • 5
 
Accuracy:
  • Currently 2.8/5 Stars.
  • 1
  • 2
  • 3
  • 4
  • 5
 
click stars to rate
Chordie recommends:
Learn to play this song & others via video guitar lessons at JamPlay.com
Songbook:
Login to add this song to your songbook
Support the artist
Preview/buy this song
MSN Music
Why this non-profit ad?

 
login to add comments/video/corrections