Guitar Tabs, Chords and Lyrics


Ode To Serotonin  Nightmare Of You

   [A]   [C#5]     [D]   [Dm]    [F#]     [E]   [Ab5]                                                                                 
e|-0-|---|-2-|-1-|---|-0-|---|
b|-2-|-4-|-3-|-3-|---|-0-|---|
g|-2-|-4-|-2-|-2-|---|-1-|---|
d|-2-|-4-|-0-|-0-|-4-|-2-|-6-|
a|-0-|-2-|---|---|-4-|-2-|-6-|
E|---|---|---|---|-2-|-0-|-4-|


Verse 1
-------

Sudden[A]ly sprite[C#5]ly budding through the [D]billows
The sun is [Dm]bobbing heavenly against the [A]trees
With bees [C#5]buzzing
They're sucking [D]nectar from a flower
And if [Dm]we could have this hour for a [F#]lifetime

Chorus
------

We'd [E]smile blinking[A]ly
[F#]Laughing till we're gagging violent[D]ly
E A *pause*
O soaring dove, I'm quite sure this is love!

Verse 2
-------

I'm utter[A]ly de[C#5]praved, let's do it on your [D]terrace
And the [Dm]rain will catch the notches on our [A]backs
Ex[C#5]changing spit through our sloppy [D]kisses
Where the [Dm]water tastes like perfumes of the [F#]docks

Chorus
------

We're [E]meant symmetrical[A]ly!
[F#]hand in hand we're strolling gorgeous[D]ly
E A *pause*
O soaring dove, I'm quite sure this is love...

Bridge
------


Guitar plays verse chords over piano solo(A, C#5, D,
x 2 then F#)

piano solo for guitar:

       [C#5]            [D]        [Dm]           [F#]                                                                     
e|-----------------------------------------------12-9-10-9--------------7-10-12--------|
b|---------------------------------------------------------12-9-10-7-10----------------|
g|-----6--6----6-----------------------------------------------------------------------|
d|-7-9------6----9-7-7h9p7---7-9-10-9-7------------------------------------------------|
a|-------------------------9------------8-7--------------------------------------------|
E|-------------------------------------------------------------------------------------|


Chorus
------

We'd [E]smile blinking[A]ly
[F#]hand in hand we're strolling gorgeous[D]ly


O soaring [E]dove, I'm quite sure this is [A]love...   [F#]       [D]
O soaring [E]dove, I'm quite sure this is [A]love...   [F#]       [D]
O[Ab5] soari[A]ng dove, I'm quite sure that this could be love...

Important: The song above is NOT stored on the Chordie server. The original song is hosted at www.guitaretab.com. Chordie works as a search engine and provides on-the-fly formatting. Chordie does not index songs against artists'/composers' will. To remove this song please click here.

Text color:
Chord color:
Chord grids: 
Font size:    
Page size: 

A Ab5 C#5 D Dm E F#
variations - click chord images

Login - add to songbook

Transpose chords

Tuning

Rating click stars to rate

Layout
Accuracy

SHARE PAGE  




You need to log in to post comments