No Me Digas Que No

Nikki Clan

 A5D5E5
  Dices que somos amigos
 A5D5E5
  Deberíamos ser algo más
 A5D5E5
  Y se que piensas lo mismo
 A5D5E5
  Pero tu sabes disimular

 A5
  Dices que como amigos
 D5
 Me quieres eternamente
 A5
  Pero como algo más
 E5
 Me olvidarías fácilmente

 A5E5F#m
  Noooooo
 D5A5E5F#mD5
 No me digas que nooo nooo 
 D5A5E5
  Si lo que quieres es huir
 F#mD5A5E5F#m
 No intentes ya mentirme más, ya nooooo
 D5
 Sabes que mientes!

 A5E5F#m
  Siiiiii
 D5A5E5F#mD5
 Mejor dime que siii siii 
 A5E5
 Que es verdad que yo te gusto
 F#mD5A5E5F#mD5
 Que no quieres a nadie más que a miiiiiiii 

 A5D5E5
  Te gusta estar conmigo
e------------------------
b-10-10-10-10-12-12-9-9--
g---9--9--9--9--9--9-9-9-


 A5D5E5
  Volarme y hacerme creer
e---------------------------
b-10-10-10-10--7--7--9--9---
g---9--9--9---9--9--9--9--9-


 A5D5E5
  Que quieres ser más que amigos
e-----------------------------
b-10-10-10-10--12--12---9--9--
g---9--9--9---9---9---9--9--9-


 A5D5E5
  Pero te la juegas otra vez
e---------------------------
b-10-10-10-10--7--7--9--9---
g---9--9--9---9--9--9--9--9-


 A5
  Dices que como amigos
 D5
 Me quieres eternamente
 A5
  Pero como algo más
 E5
 Me olvidarías fácilmente

 A5E5F#m
  Noooooo
 D5A5E5F#mD5
 No me digas que nooo nooo 
 D5A5E5
  Si lo que quieres es huir
 F#mD5A5E5F#m
 No intentes ya mentirme más, ya nooooo
 D5
 Sabes que mientes!

 A5E5F#m
  Siiiii
e-------------------
b-10-12-10-12-10-12-
g---9-----9-----9---


 D5A5E5F#mD5
Mejor dime que siiii sii 
e-------------------------
b-10-12-10-12-10-12-10-12-
g---9-----9-----9-----9---


 A5E5
Que es verdad que yo te gusto
e-----------------------------
b--10-12--10-12--10-12--10-12-
g----9------9------9------9---


 F#mD5A5E5F#mE5
Que no quieres a nadie más que a miiiiiiii 
e---------------------------------------------
b-10---12--10---12--10---12--10---12--10---12-
g----9--------9--------9--------9--------9----


 D5E5C5G5
  Tarde o temprano cambiaras
 D5E5C5D5
  Serás tu quien se arrepentirá
 D5E5C5G5
  Alguien te hará lo que tu a mi

 F#m
  Te usara, te mentira
 A5
  Enamorara y te hará creer
 D5
  Que no puede vivir sin ti
 E5E5
  Para después dejarte ir

 A5E5F#m
   Nooooooooo
e-------------------
b-10-12-10-12-10-12-
g---9-----9-----9---


 D5A5E5F#mD5
  No me digas que noooo nooo
e----------------------------
b-10-12--10-12--10-12--10-12-
g---9------9------9------9---


 A5E5
  Si lo que quieres es huir
e---------------------------
b-10---12--10---12--10---12-
g----9--------9--------9----


 F#mD5A5E5F#m
  No intentes ya mentirme más, ya nooooo
e---------------------------------------
b-10---12---10---12---10---12---10---12-
g----9---------9---------9----------9---


 D5
  Sabes que mientes!
e------------------
b-10---12--10---12-
g----9--------9----


 A5E5F#m
  Siiiiiiiii
e-------------------
b-10-12-10-12-10-12-
g---9-----9-----9---


 D5A5E5F#mD5
  Mejor dime que siiii sii 
e-------------------------
b-10-12-10-12-10-12-10-12-
g---9-----9-----9-----9---


 A5E5
  Que es verdad que yo te gusto
e-----------------------------
b--10-12--10-12--10-12--10-12-
g----9------9------9------9---


 F#mD5A5E5F#mE5
  Que no quieres a nadie más que a miiiiiiii 
e---------------------------------------------
b-10---12--10---12--10---12--10---12--10---12-
g----9--------9--------9--------9--------9----


 A5E5
  Que es verdad que yo te gusto
e-----------------------------
b--10-12--10-12--10-12--10-12-
g----9------9------9------9---


 F#mD5A5E5F#mD5A5
  Que no quieres a nadie más que a miiiiiiii    
e------------------------------------------------
b-10---12--10---12--10---12--10---12--10---12-10-
g----9--------9--------9--------9--------9-------


ACORDES UTILIZADOS

 A5D5E5F#mC5G5
e---x-----x-----x-----x-----x-----x--
b---x-----x-----x-----x-----x-----x--
g---x-----7-----9-----x-----5-----x--
d---7-----7-----9-----4-----5-----5--
a---7-----5-----7-----4-----3-----5--
e---5-----x-----x-----2-----x-----3--



A5 C5 D5 E5 F#m G5
variations - click chord images
Transpose chords:
Tuning:
Cool service:
View: Size:
A  A  A
Rating:
Layout:
  • Currently 3.6/5 Stars.
  • 1
  • 2
  • 3
  • 4
  • 5
 
Accuracy:
  • Currently 2.7/5 Stars.
  • 1
  • 2
  • 3
  • 4
  • 5
 
click stars to rate
Chordie recommends:
Learn how to play guitar at JamPlay.com
Songbook:
Login to add this song to your songbook
Support the artist
Preview/buy this song
MSN Music
Why this non-profit ad?

 
login to add comments/video/corrections