Guitar Tabs, Chords and Lyrics


Body   Nina Nastasia



-------------------------------------------------------------------------------
			     The Body - Nina Nastasia
-------------------------------------------------------------------------------
Tabbed by: Ben Hurst
Email: BHurst8@gmail.com

From the album "Run to Ruin"

A pretty song on guitar, a perfectly gorgeous song with Nina's vocals and piano/string accompaniment.

Tuning: Standard

I'm having difficulty with the time signature so I split up the measures to best accompany the vocals.

  Verse Pattern
e|-----------------------------|--------------------------|------------|
B|12--12--12--12--13--13--12---|10--10--10--10---7--8--8--|5--5--5--5--|
G|--0---0---0---0---0---0---0--|--0---0---0---0---0--0--0-|-0--0--0--0-|
D|---12--12--12--12--13--13--12|---10--10--10--10--9--9--9|--5--5--5--0|
A|-----------------------------|--------------------------|------------|
E|-----------------------------|--------------------------|------------|
  1st, 3rd-5th time                    x4       2nd time                   x4              
e|------------------------|--------------|-----|---------------------|-----------|
B|2--3--3--0--5--5--5--5--|o2--3--3--0--o|-----|2--3--3--5--5--5--5--|o2--3--0--o|
G|-0--0--0--0--0--0--0--0-|--0--0--0--0--|-----|-0--0--0--0--0--0--0-|--0--0--0--|
D|--0--0--0--0--5--5--5--0|---0--0--0--0-|-----|--0--0--0--5--5--5--0|---0--0--0-|
A|------------------------|o------------o|-----|---------------------|o---------o|
E|------------------------|--------------|-----|---------------------|-----------|

  Break after 2nd & 4th verse                 x4
e|-----------------------|-----------------------|
B|o3--3--3--3------------|3--3--3--3------------o|
G|--0--0--0--0-0-0-0-0-0-|-0--0--0--0-0-0-0-0-0--|
D|---3--3--3--3-3-3-3-3-3|--0--0--0--0-0-0-0-0-0-|
A|o----------------------|----------------------o|
E|-----------------------|-----------------------|

  Outro  
           x3                    x3
e|-7--7--8---|7--7--7--|-5--5--6---|5--5--5--|
B|o-8--8--8-o|-8--8--8-|o-6--6--6-o|-6--6--6-|
G|---9--9--9-|--9--9--9|---7--7--7-|--7--7--7|
D|-----------|---------|-----------|---------|
A|o---------o|---------|o---------o|---------|
E|-----------|---------|-----------|---------|

  Strings enter
  Pattern A                                     x2
e|-10--10--10--10--10--10--|7--7--7--7--7--7-----|
B|o-11--11--11--11--11--11-|-8--8--8--8--8--8---o|
G|---12--12--12--12--12--12|--9--9--9--9--9--9---|
D|-------------------------|---------------------|
A|o------------------------|--------------------o|
E|-------------------------|---------------------|

  Then things pick up
               x4             x4
e|-5--5--6-------|3--3--4-------|
B|o-6--6----6-6-o|-4--4----4-4-o|
G|---7--7----7-7-|--5--5----5-5-| 

Important: The song above is NOT stored on the Chordie server. The original song is hosted at www.guitaretab.com. Chordie works as a search engine and provides on-the-fly formatting. Chordie does not index songs against artists'/composers' will. To remove this song please click here.

This song is displayed as text-only. Transposing and tuning is only available for chordpro-songs.

Login - add to songbook

Rating click stars to rate

Layout
Accuracy

SHARE PAGE  




You need to log in to post comments