"yes"; ?> Rape Me by Nirvana - guitar chords, guitar tabs and lyrics - chordie

Rape Me

Nirvana

Subject: OLGA- Nirvana- Rape me----Tablature

-----------------------------------------PLEASE

 NOTE---------------------------------------------------------------  #


 ############
  -_-______________________________________________________________________

research.............%
________________________________________________________________________
NIRVANA- RAPE ME
 Intro-/2nd & Verse/ Choruses: A5  C5  E5   G5 ------
1:----------------------------------------------------------------------------
-------------------------------------------#
2:----------------------------------------------------------------------------
-------------------------------------------#
3:---------------------------------5------------------------------------------
------------------------------------------#
4:-------------7---------------5-5-5-----2----------------5-------------------
--------------------------------------#
5:------------7--------------3------------2---------------5-5-5---------------
--------------------------------------- #
6:---------5------------5--------------0------0--------3----------------------
---------------------------------------- #

Bridge: C#5 A5 G5 F#5 F5 G#5 E5 G5 F#5 F5...
Lyrics: Rape Me, my friend
Rape me again
I'm not the only one
Hate me
Do it and do it again..
Waste me
Taste me, my friend..
My favorite inside source
I "ll kiss your open sores
Appreciate your concern
You"ll always stink and burn....
_________________________________________________________________________
4/04
From : JGLass5726@aol.com
  Greetings from North Carolina-----------Enjoy!!!!!!!!----Comments?

-Suggestions?----
SubJect----Tab------By Nirvana..Rape Me......From  In

Utero....................................
Tabbed.......By Michael Harley Glass. @ 11:53 PM..
Comments from the Tabber....(Weez).....
I 'm Pretty sure this is right , try it and see , play the cd, i got it
to match.
See ya!!!!!!!!!
NiRV@na R A P E ME
 --------------------------------------------------------------------

 #####







variations - click chord images
Transpose chords:
Tuning:
Cool service:
View: Size:
A  A  A
Rating:
Layout:
  • Currently 0/5 Stars.
  • 1
  • 2
  • 3
  • 4
  • 5
 
Accuracy:
  • Currently 2/5 Stars.
  • 1
  • 2
  • 3
  • 4
  • 5
 
click stars to rate
Chordie recommends:
Check out JamPlay.com for online video guitar lessons
Songbook:
Login to add this song to your songbook
Support the artist
Preview/buy this song
MSN Music
Why this non-profit ad?

 
login to add comments/video/corrections