Rape Me

Nirvana



 |-x---x-----------x-----------------            

 |-x---x-------x---x----------------- 

 |-x---2---5---x---0-------6---------   

 |-x---2---5---2---0---5---6---3---6-

 |-x---0---3---2---x---5---4---3---6-

 |-x---x-------0---3---3-------1---4-


 xxxx
 A5A5xxC5C5E5E5xxG5G5
                 (x2)
1ST VERSE:
 E5G5
    A5    C5      E5    G5                     A5    C5      \\\\\\
 1:-----------------------------            1:----------------------x-x-x-x-x--x-x-
 2:-----------------------------            2:----------------x--x--x-x-x-x-x--x-x-
 3:---2-------5-----------------  (x3)  +   3:---2-------5----x--x--0-0-0-0-0--0-0-
 4:---2-----5-5-5---2-------0---            4:---2-----5-5-5--2--2--0-0-0-0-0--0-0-
 5:-0---0-3---------2-----0-0-0-	    5:-0---0-3--------2--2--x-x-x-x-x--x-x-
 6:---------------0---0-3-------	    6:----------------0--0--3-3-3-3-3--3-3-

/distorded/
MAIN RIFF:
 A5A5xxC5C5E5E5G5
           \\\\\\ (x4)
MAIN RIFF':
 A5A5C5E5E5G5
   \\\\\     \\\\\\  (x3)
 A5A5C5E5E5G5
   \\\\\     \\\\\\
/distorded/
MAIN RIFF'':
 A5A5xxC5C5E5E5xxG5G5
                (x3)
 A5A5xxC5C5E5
SLIDE:
 1:-----------
 2:-----------
 3:-----------
 4:-----------
 5:-----------

6:-3-/21--\3-
BRIDGE:
 C#5A5
 \\\\\  \\
 1:-----------
 2:-----------
 3:-----------
 4:-----------
 5:-----------
 6:-0-3-2-1-0-      

 G#5E5
 \\\\\  \\
 1:-----------
 2:-----------
 3:-----------
 4:-----------
 5:-----------
 6:-0-3-2-1-0-

BRIDGE END:
 F5G5E5
 \ \\\\\\ \ \\\\\  
1:--0-- let ring
2:--0--
3:-----
4:-----
5:-----
6:-----
***********SONG STRUCTURE***********
INTRO /clean/
1ST VERSE /clean/
"Rape me"
"Rape me my friend"
"Rape me"
"Rape me again"
MAIN RIFF /distorted/
"I'm not the only one" (x4)
MAIN RIFF' /clean/
"Hate me"
"Do it and do it again"
"Waste me"
"Rape me my friend"
MAIN RIFF (x4) /distorted/
"I'm not the only one" (x4)
BRIDGE (x2) /distorded/
"My favorite inside source"
"I'll kiss your open sores"
"Appreciate your concern"
"You'll always stink and burn"
BRIDGE END /distorded/
MAIN RIFF'' /clean/
"Rape me"
"Rape me my friend"
"Rape me"
"Rape me again"
SLIDE /distorded/
MAIN RIFF /distorted/
"I'm not the only one" (x4)
MAIN RIFF /distorted/
"Rape me + (Rape me)" (x8)
 A5
  end on  chord
"Rape me"

A5 C#5 C5 E5 F5 G#5 G5
variations - click chord images
Transpose chords:
Tuning:
Cool service:
View: Size:
A  A  A
Rating:
Layout:
  • Currently 3.4/5 Stars.
  • 1
  • 2
  • 3
  • 4
  • 5
 
Accuracy:
  • Currently 3.5/5 Stars.
  • 1
  • 2
  • 3
  • 4
  • 5
 
click stars to rate
Chordie recommends:
Check out JamPlay.com for online video guitar lessons
Songbook:
Login to add this song to your songbook
Support the artist
Preview/buy this song
MSN Music
Why this non-profit ad?

 
login to add comments/video/corrections

traymcbride (report comment to admin):
Tune your guitar down to E flat to match the recording.