eToCache5 = ""; ?> The Man Who Sold The Worldd by Nirvana - guitar chords, guitar tabs and lyrics - chordie

The Man Who Sold The Worldd

Nirvana

eb:----------------------------

Bb:----------------------------

Gb:--2-2-2-0--2/3\2-0----------

Db:----------------------------

Ab:----------------------------

Eb:----------------------------


 FDm
e:--1-1-x-1-1-1--1-1-x-1-1-1---1--
B:--1-1-x-1-1-1--1-1-x-1-1-1---3--
G:--2-2-x-2-2-2--2-2-x-2-2-2---2--
D:--3-3-x-3-3-3--3-3-x-3-3-3---0--
A:--3-3-x-3-3-3--3-3-x-3-3-3------
E:--1-1-x-1-1-1--1-1-x-1-1-1------

1st Verse: (2 Guitars)
 ADm
We passed upon the stair, we spoke of was and when
 AF
Although I wasn't there, he said I was his friend
 CA
Which came as some surprise I spoke into his eyes
 Dm
I thought you died alone, a long long time ago
Chorus:
Gtr II: (play 2 times)
e:-------------------------------------
B:-------------------------------------
G:-------------2-3-5------------2-3-5--
D:-----0-2-3-5----------0-2-3-5--------
A:--3-----------------3----------------
E:-------------------------------------

e:
B:-------------------------------------
G:----------------------------2-3-5--2-
D:------------0-2-3------2-3-5---------
A:------0-1-3--------0-2---------------
E:--1-3--------------------------------

Gtr I:
 CF
Oh no, not me
 C#F
I never lost control
 CF
You're face to face
 C#
With The Man Who Sold The World
Before the 2nd vese:
Gtr I (play 6 times)
eb:----------------------------
Bb:----------------------------
Gb:--2-2-2-0--2/3\2-0----------
Db:----------------------------
Ab:----------------------------
Eb:----------------------------

Gtr II
 DmFDm
eb:-1----1-1-x-1-1-1--1-1-x-1-1-1---1--
Bb:-3----1-1-x-1-1-1--1-1-x-1-1-1---3--
Gb:-2----2-2-x-2-2-2--2-2-x-2-2-2---2--
Db:-0----3-3-x-3-3-3--3-3-x-3-3-3---0--
Ab:------3-3-x-3-3-3--3-3-x-3-3-3------
Eb:------1-1-x-1-1-1--1-1-x-1-1-1------

2nd Verse: (play 2 times)
 ADm
  I laughed and shook his hand, and made my way back home
 AF
I searched for form and land, for years and years I roamed
 CA
I gazed a gazely stare at all the millions here
 Dm
We must have died alone, a long, long time ago
Gtr II: (play 2 times)
e:-------------------------------------
B:-------------------------------------
G:-------------2-3-5------------2-3-5--
D:-----0-2-3-5----------0-2-3-5--------
A:--3-----------------3----------------
E:-------------------------------------
e:-------------------------------------
B:-------------------------------------
G:----------------------------2-3-5--2-
D:------------0-2-3------2-3-5---------
A:------0-1-3--------0-2---------------
E:--1-3--------------------------------

Gtr I
 CF
Who knows? Not me
 C#
We never lost control
 CF
You're face to face
 C#
With the Man who Sold the World
before the solo:
Gtr I (play 8 times)
eb:----------------------------
Bb:----------------------------
Gb:--2-2-2-0--2/3\2-0----------
Db:----------------------------
Ab:----------------------------
Eb:----------------------------

Solo:
eb:-----------------------------------------------------------------------
Bb:-----------------------------------------------------------------------
Gb:--10~~~~~-9-9\7-7~~~~~-7-7/9-9~~~~~\2-2-2-0--2/3\2-0--2-2-2-0--2/3\2-0-
Db:-----------------------------------------------------------------------
Ab:-----------------------------------------------------------------------
Eb:-----------------------------------------------------------------------
eb:---------------------------------------------------------------
Bb:---------------------------------------------------------------
Gb:-/10~~~~~-9-9\7-7~~~~~-9~~~~~2-2-2-0-2/3\2-0--2-2-2-0--2/3\2-0-
Db:---------------------------------------------------------------
Ab:---------------------------------------------------------------
Eb:---------------------------------------------------------------
eb:-----------------------------
Bb:-----------------------------
Gb:--2-2-2-0--2/3\2-0--2--------
Db:-----------------------------
Ab:-----------------------------
Eb:----------------------------


A C C# Dm F
variations - click chord images
Transpose chords:
Tuning:
Cool service:
View: Size:
A  A  A
Rating:
Layout:
  • Currently 2.8/5 Stars.
  • 1
  • 2
  • 3
  • 4
  • 5
 
Accuracy:
  • Currently 2.8/5 Stars.
  • 1
  • 2
  • 3
  • 4
  • 5
 
click stars to rate
Chordie recommends:
Get acoustic guitar lessons and electric guitar lessons at JamPlay.com
Songbook:
Login to add this song to your songbook
Support the artist
Preview/buy this song
MSN Music
Why this non-profit ad?

 
login to add comments/video/corrections