"yes"; ?> Fellowship by Nixons - guitar chords, guitar tabs and lyrics - chordie

Fellowship

Nixons

 FD#FC#
e--------------|-------------------------||
B--------------|------------------------.||
G--------------|-------------------------||
D-3--3--xx-1-3-|-/11--11--11-11-11--11---||
A-3--3--xx-1-3-|-/11--11--11-11-11--11--.||
D-3--3--xx-1-3-|-/11--11--11-11-11--11---||


Chords
 D#FGG#A#CC#
e-------------------------------------|
B-------------------------------------|
G-------------------------------------|
D--1----3----5----6----8----10----11--|
A--1----3----5----6----8----10----11--|
D--1----3----5----6----8----10----11--|


Okay, Here is the song. Since this version is from their
small-time album Halo, the words will be a little different
from the version on Foma. But 98% of it is close enough.
If you have Halo it will be perfect.
But for those of you who want to play that cool lead
in the intro from Foma. I tabbed it out.
/bend and hold
e-------4---4--4--4--4-4\(10)-10--10--10--10---10\-|
B--4\(6)--6--6--6--6--6---------12--12--12--12-12\-|
G--------------------------------------------------|
D--------------------------------------------------|
A--------------------------------------------------|
D--------------------------------------------------|

-The Song-
 FGG#
   I cannot believe it.
 D#
I've heard all your stories, and read every page of your
 FGG#
good book and your balance book.
 A#
But, I just don't see what you need from me.
 FGG#
 Do not judge this soul
 D#
 based on the time that I spend in your temple.
 FGG#
 Get off my T.V. don't need
 A#
 1-800 to be free;
 C#CFD#F
 because He's got my heart     and I know
 C#CFD#F
 I know that he needs nothing more from me.
 C#CFD#F
 He's got my heart      and it's
 D#
 all he needs...
 FD#FC#FD#FC#
My fellowship he is one.  All I need is inside.
 FD#FC#FD#FC#
 fellowship, he is one.                   
-continue rest of the song as above-

Reverend Deceiver,
high in your tower you need my money to live.
Then I say that you can die,
for I do not agree that he needs my silver.
He's got my heart
and I know, I know that he needs nothing more from me.
I await His call.... ali Allah in come free.

Fellowship he is one. All I need is inside.
Fellowship he is one.
-ad lib-
-guitar solo w/vocals-
Reverend Deceiver you need my money to live.
In your tower above your bronze praying hands.
Should've been bigger, Should?ve been bigger
Maybe then he could hear you clearly
Softly and Tenderly.
-ad lib-
Get off my T.V.
 A#C#
 For I do not agree that he needs my silver.

He's got my heart and I know
I know that He needs nothing more from me.
I await his call...ali Allah in come free.

Fellowship is one. All I need is inside.
Fellowship of one. One.
-ad lib-
Should?ve been bigger.
Should?ve been bigger.
All I need is inside.

My fellowship ONE!

-now for that pesky solo stuff. This is the only lead
guitar for the version on halo, The end leads from Foma
are beyond me. Also since I am not their guitarist,
I can only tab it out as I hear it I hope it is good
enough for ya... here goes nuttin-
e--------------------------------------|------------------|
B--------------------------------------|------------------|
G--------------------------------------|------------------|
D--------3--3------------3-3---3---~~~~|--------3-3----3--|
A--3\(4)---4--4-----3\(4)-4--44--4-3---|--3\(4)--4--44----|
D--------------------------------------|------------------|
e--------------------full....----------|---------------||
B-------------------/--------\~~~~-----|--------------.||
G--------~~~~-.-1--3-(3)--3-3-3-3------|----...--------||
D-----3--3---1h3-----------------------|---1-h-3------.||7x
A3\(4)----4----------------------------|---------------||
D--------------------------------------|---------------||
e---------------------full....------------/half-------|
B--------------------/--------\~~~~--4---1-----(1)----|
G---...-------1--3-(3)--3-3-3-3----3------------------|
D--1-h-3---1h3----------------------------------------|
A-----------------------------------------------------|
D-----------------------------------------------------|

|this part I'm not sure of|
e-------/half----------------------------------/half----|
B-1--(1)------------1h2p1-0h1p0-1h2-~~~~--4---1---------|(1)
G-----------------------------------3---3---------------|
D-------------------------------------------------------|
A-------------------------------------------------------|
D-------------------------------------------------------|

-ends with- F G G# F
Lastly, the bass follows the rythm extensively; so it
shouldn't be hard to play with the whole band after one
run through.
This is my first transcription, I hope it's good.
Please E-Mail me with any comments and or corrections |
|
mb0516@broncho.ucok.edu /___\|/____
More to come... \ /|\
|
|


A# C C# D# F G G#
variations - click chord images
Transpose chords:
Tuning:
Cool service:
View: Size:
A  A  A
Rating:
Layout:
  • Currently 0/5 Stars.
  • 1
  • 2
  • 3
  • 4
  • 5
 
Accuracy:
  • Currently 0/5 Stars.
  • 1
  • 2
  • 3
  • 4
  • 5
 
click stars to rate
Chordie recommends:
Get acoustic guitar lessons and electric guitar lessons at JamPlay.com
Songbook:
Login to add this song to your songbook
Support the artist
Preview/buy this song
MSN Music
Why this non-profit ad?

 
login to add comments/video/corrections