Chordie logo


Gasoline   No Cash



----------------------------------------------------------------------------
			     GASOLINE - No Cash
----------------------------------------------------------------------------
Tabbed by: Andrew
Email: adewitt457@msn.com

Intro:
e|-------------------------------------------------------------------------|
B|-------------------------------------------------------------------------|
G|--------------6677-4444444444---7766------------66--77------------7766---|
D|-7777777777-77----------------77-----44444444-44--44---5555555555-----77-|
A|-5555555555--------------------------------------------------------------|
E|-------------------------------------------------------------------------|

The Verse is the same as above except palm muted.

Chorus: X4
e|-------------------------------------------------------------------------|
B|-------------------------------------------------------------------------|
G|-------------------------------------------------------------------------|
D|-5-7-9-2-22-22-22--------------------------------------------------------|
A|-5-7-9-2-22-22-22--------------------------------------------------------|
E|-3-5-7-0-00-00-00--------------------------------------------------------|
         ^  ^  ^  ^
Between the chorus and verse
e|-------------------------------------------------------------------------|
B|-------------------------------------------------------------------------|
G|-------------------------------------------------------------------------|
D|-7777777777--------------------------------------------------------------|
A|-7777777777--------------------------------------------------------------|
E|-5555555555--------------------------------------------------------------|
   **********
I don't really know the rest...but, this is a good start


| ^  let ring
| /  slide up
| \  slide down
| h  hammer-on
| p  pull-off
| ~  vibrato
| +  harmonic
| *  Mute note
============================================================================


Important: The song above is NOT stored on the Chordie server. The original song is hosted at www.guitaretab.com. Chordie works as a search engine and provides on-the-fly formatting. Chordie does not index songs against artists/composers will. To remove this song please click here.

This song is displayed as text-only. Transposing and tuning is only available for chordpro-songs.

Login - add to songbook

Rating click stars to rate

Layout
Accuracy

SHARE PAGE  




You need to log in to post comments