Chordie logo

Let Me Down  No Use For A Name

--------------------------









She's never alone[D],
because she's [A]scared of what she might say to hersel[B]f
Always [A]drinking in the backroom of the [D]bar [F#]where [G]every[A]one turns[B] in
A half-hearted[A] grin
She won't be afraid[D]
as long as [A]that prescription keeps going [B]through
A D F# G A Riff 1
And all the happy pills make her look like cardboard cut out of someone
Riff 2
I use to learn from
D ,D/C# B
But on the phone, she's telling everyone,
G(10th fret)
that there was a blue sky,
F#(9th fret) E(7th fret)
she left behind
And there's a[D] place that no one [D/C#]knows about,
Riff 3
Away from integrity
B D Riff 4(Bridge)
she writes a book in her head that nobody will read
Whatever you say[D],
please don't [A]talk about the time when she was [B]young
Appare[A]ntly that was a different person
D F# G A Riff 1 Riff 2
and so long ago it's strange to me, there's no history
[D]But there's a past[D/C#] and she's [B]telling everyone
G(10th fret)
It must be a garden,
F#(9th fret) E(7th fret)
that wouldn't grow
With roots of [D]shame, too sensitive [D/C#]to blame
Riff 3
to herself as we watch he drown,
B D play interlude
I can't save the queen without a kingdom or a crown

[D]Somewhere in this lonely game of [A]sympathy
there is a [B]selfish dream [A]That makes me [G]sick
[D]Standing on the high wire while you're [A]on the ground
B / C# / D Riff 5
To you what is dangerous is safe and sound...

You let me down

-play outro


Intro
[-----]- D , A , B , A,
D,F#,G,A, B , A

Verse 1 Riff 1,
-------                        E|----------------------------------|
- D , A , B , A,               B|----------------------------------|
  D,F#,G,A, riff 1 , riff 2    G|-12--12---11-11-11--7--7-7--7-7-7-|
                               D|--x---x----x--x--x--x--x-x--x-x-x-|
                               A|-10--10----9--9--9--5--5-5--5-5-5-|
                               E|----------------------------------|

Riff 2,
                               E|----------------------------------|
                               B|----------------------------------|
                               G|--9--9--9-9-9--6--6-6--6-6-6------|
                               D|--x--x--x-x-x--x--x-x--x-x-x------|
                               A|--7--7--7-7-7--4--4-4--4-4-4------|
                               E|----------------------------------|


Chorus 1 eh? (weird construction,cool though)
--------


- D,D/C#, B , G(10th fret), (figure the rhythm out yourself,it's
not difficult...just fast)

F#(9th fret),E(7th fret), Riff 3,
                               E|----------------------------------|
  D ,  D/C# ,                  B|----------------------------------|
                               G|-12--12---11-11-11--9--9-9--9-9-9-|
  Riff 3,                      D|--x---x----x--x--x--x--x-x--x-x-x-|
                               A|-10--10----9--9--9--7--7-7--7-7-7-|
  B , D                        E|----------------------------------|


Bridge
------

Riff 4,
E|---------------------------------|--------------------------|
B|---------------------------------|--------------------------|

G|--7-7-6---7-6--7-7-7\6--7/9------|-7--7--7--6-6--6-6--6-6-6-|
D|--x-x-x---x-x--x-x-x-x--x-x----x3|-x--x--x--x-x--x-x--x-x-x-|
A|--5-5-4---5-4--5-5-5\4--5/7------|-5--5--5--4-4--4-4--4-4-4-|
E|---------------------------------|--------------------------|

Verse 2 & Chorus 2
------------------

repeat the 1st ones

Interlude
---------

--well,this is mainly a bass interlude,
but you can raplace it with strumming these chords

- D , A , B , G

D , A , B , G(10th fret)

then,

E|-----------------------------------------|
B|-----------------------------------------|
G|-----------------------------------------|
D|-(5-5)---8-8-8-8-8-8-8-8-7-7-7-7-5-5-5-5-|
A|-(5-5)-----------------------------------|
E|-(3-3)-----------------------------------|

PM

Bridge 2 eh? whatever
--------

- D , A , B,A, G
D , A , B, C# , D ,Riff 5

Riff 5
E|-----------------------|
B|-----------------------|
G|-----------------------|
D|----8--8--8-8-8-7--7-7-|
A|-----------------------|
E|-----------------------|


Outro
[-----]same as Riff 4(Bridge)
only the 2nd time,guitar 2 comes in
with the same but an octave higher...or so

then strum D , D , F#(9th fret) , E(7th fret), D



Chords used
E|-----------------------------------------------------------------|
B|-----------------------------------------------------------------|
G|-7---------------7----4----12-----------11-----------9-----------|
D|-7--7--9--4--5---7----4----12-----------11-----------9-----------|
A|-5--7--9--4--5---4----2----10------------9-----------7-----------|
E|----5--7--2--3---------------------------------------------------|

D A B F# G D/C# B G(10th fret) F#(9th fret) E(7th fret)


Enjoy!

Important: The song above is NOT stored on the Chordie server. The original song is hosted at www.guitaretab.com. Chordie works as a search engine and provides on-the-fly formatting. Chordie does not index songs against artists/composers will. To remove this song please click here.

A B D D/C# F# G
variations - click chord images

Login - add to songbook

Transpose chords

Tuning

Rating click stars to rate

Layout
Accuracy

SHARE PAGE  



You need to log in to post comments