Chordie logo

Interrupted By Fireworks   Nobuo Uematsu



This is my first tab so go easy on me. 
I've combined both the melody and accompaniment in one so its a little harder to 
play but sounds well.

Please rate well.  Comments will be much appreciated :)

E |--------0------------------------0---------2-3---2--|
B |------3---3------3---3---3-----3---3-------3---3----|
G |----2-------2--4---2---0-----2-------2---2-------2--|
D |--0------------5---4---2---4-----------0------------|
A |---------------------------5------------------------|
E |----------------------------------------------------|

E |--2-0-2-3-----------------------------------2---0---|
B |------1-3-1-------1-3-1-------1-3-1-------1-3-1-----|
G |----0-------0---0-------0---0-------0---0-------0---|
D |----------------------------------------------------|
A |--3-----------3-----------3-----------3-------------|
E |----------------------------------------------------|


E |----0-2-0-----------0-----------0-----------0-------|
B |--3---3---3-------3---3-------3---3-------3---3-----|
G |----2-------2---2-------2---2-------2---2-------2---|
D |--0-----------0-----------0-----------0-------------|
A |----------------------------------------------------|
E |----------------------------------------------------|


E |--5-3-7-0-----------------------------0-----3-------|
B |--------3-1-------1-3-1-------1-3-1-------1-3-1-----|
G |------5-----0---0-------0---0-------0---0-------0---|
D |----5-----------------------------------------------|
A |--3-----------3-----------3-----------3-------------|
E |----------------------------------------------------|


E |--2-------------------2---7-------------------------|
B |--------2-----------3---3---7-----8-7-3-----2-------|
G |------4---4---4---4-----------7---------4-----4-----|
D |----4-------4---4---------------9---------4-----4---|
A |--2-------------------------------------------------|
E |----------------------------------------------------|


E |--------------3-------------------------------------|
B |--0-----1-------1-------1-0-----1-------------------|
G |----0-----0-------0---------2-----2---2-------0-2---|
D |------2-----2---------2-------2-----2---2-----2-4---|
A |--3-----------------3-----0---------------3-0-------|
E |----------------------------------------------------|


E |------3-7-5-3-2-3---3---3-----------0---------------|
B |--0-3-------------5---3---2-----------3-----0-------|
G |------0---0-------0-2-0-------0-2-0-------0-2-0-----|
D |----0---7---0---0-------0---0-------0---0-------0---|
A |----------------------------------------------------|
E |--3-----------3-----------3-----------3-------------|


E |--------2-----0-----2-----7-----5-----------5-------|
B |--3---3---3-------2---2---------5-----9-----5-------|
G |----2-------2---2-------2-----5---5-------5---5-----|
D |--0-------------------------7-------7---7-------7---|
A |--------------4-----------3-------------------------|
E |--------------------------------------8-------------|


E |--10-----7-----------7-----------3-----------3------|
B |-------8---8---8---8---8-------3---3-------3---3----|
G |-----7-------7---7-------7---3-------3---3-------3--|
D |---5-----------5------------------------------------|
A |----------------------------------------------------|
E |---------------------------3-----------5-----3------|



E |--------0-------------------2-----------------------|
B |------3---3------3---3---3--3-----------------------|
G |----2-------2--4---2---0----2-----------------------|
D |--0------------5---4---2----0-----------------------|
A |----------------------------------------------------|
E |----------------------------------------------------|



Important: The song above is NOT stored on the Chordie server. The original song is hosted at www.guitaretab.com. Chordie works as a search engine and provides on-the-fly formatting. Chordie does not index songs against artists/composers will. To remove this song please click here.

This song is displayed as text-only. Transposing and tuning is only available for chordpro-songs.

Login - add to songbook

Rating click stars to rate

Layout
Accuracy

SHARE PAGE  

You need to log in to post comments