Guitar Tabs, Chords and Lyrics


Oppressed People   Nobuo Uematsu



-------------------------------------------------------------------------------
		     Oppressed People – Nobuo Uematsu (FF7 Soundtrack)
-------------------------------------------------------------------------------
 
No "Oppreseed People" tab?! WTF?

Tuning : EAD#ACE

Difficult tuning, I know. 

To most FF fans, this is the music that is playing in “Wall Market” in FF7

The main theme is this, played with a choppy rhythm. Has a little 
bit of delay going on every now and again.

E |--1----1----1----1-----2----2---2---2------------------------------|
C |--1----1----1----1-----3----3---3---3------------------------------|
A |--3----3----3----3-----4----4---4---4------------------------------|
D#|-------------------------------------------------------------------|
A |-------------------------------------------------------------------|
E |-------------------------------------------------------------------|

It changes to this when the strings come in.

E |--1----1----1---1---3---3---3---3----1--1--1--1---1---1----------------------|
C |--1----1----1---1---4---4---4---4----1--1--1--1---3---1---0--0-0---0---0--0--|
A |--3----3----3---3---4---4---4---4----3--3--3--3---1---1---6--6-6---8---8--8--|
D#|----------------------------------------------------------7--7-7---10-10-10--|
A |-----------------------------------------------------------------------------|
E |-----------------------------------------------------------------------------|

(This part may not be that accurate, as it is drowned out by strings)

E |--3--3--3--3---1--1--1--1--1--3--3--1--1---1--1--1--1--1--1----------------|
C |--3--3--3--3---1--1--1--1--1--3--3--1--1---1--1--1--1--1--1----------------|
A |--5--5--5--5---1--3--3--1--1--3--3--1--3---3--3--3--3--3--3----------------|
D#|---------------3--3--3--1--1-----------------------------------------------|
A |---------------------------------------------------------------------------|
E |---------------------------------------------------------------------------|

I’ll try and tab the background instruments… in standard tuning…

These are played quite a lot…

E |--2---0---1~~~~~------3------1~~~~------------1-6--6--4--6—8~~~~-----------|
B |-------------------------4-----------------4-------------------------------|
G |---------------------------------------------------------------------------|
D |---------------------------------------------------------------------------|
A |---------------------------------------------------------------------------|
E |---------------------------------------------------------------------------|

e|--9-8-7-6~~~~-----------1--------------------------------------------------|
B|----------------------------4---1--2--4-2--1-------------------------------|
G|--------------------3--------------------------3----1---3------------------|
D|---------------------------------------------------------------------------|
A|---------------------------------------------------------------------------|
E|---------------------------------------------------------------------------|

The main bass is like this…

G|---------------------------------------|
D|---------------------------------------|
A|-1--1------------------2---------------|
E|-------1--1---1--2--2------------------|

I know most of this is right as I just spent a full day working it out ;)


Important: The song above is NOT stored on the Chordie server. The original song is hosted at www.guitaretab.com. Chordie works as a search engine and provides on-the-fly formatting. Chordie does not index songs against artists'/composers' will. To remove this song please click here.

This song is displayed as text-only. Transposing and tuning is only available for chordpro-songs.

Login - add to songbook

Rating click stars to rate

Layout
Accuracy

SHARE PAGE  




You need to log in to post comments