Guitar Tabs, Chords and Lyrics


Any Advice   Nonpoint



Band- Nonpoint
Song- Any Advice

Tuning: Drop C (C,G,C,F,A,D)


Intro/chorus: with wah
------------------------------------------------------------------------------|
--0-0-0------0-0-0---0-0-0--0-0-0---------------------------------------------|
--4-4-4------6-6-6---7-7-7--3-3-3---------------------------------------------|
--x-x-x------x-x-x---x-x-x--x-x-x---------------------------------------------|
--2-2-2------4-4-4---5-5-5--1-1-1---------------------------------------------|
------------------------------------------------------------------------------|


verse: There's an acoustic guitar dubbed over this... playing the same thing
------------------------------------------------------------------------------|
------------------------------------------------------------------------------|
------------------------------------------------------------------------------|
-12p11-11-11-11-11-11-7-7-7-7-6-6-6-6-6-6-------------------------------------|
-12p11-11-11-11-11-11-7-7-7-7-6-6-6-6-6-6-------------------------------------|
-12p11-11-11-11-11-11-7-7-7-7-6-6-6-6-6-6-------------------------------------|

Prechorus:
-------------------------------------------------------------------------------|
-------------------------------------------------------------------------------|
----------13-----------13------------------------------------------------------|
-----------x------------x------------------------------------------------------|
----------11-----------11------------------------------------------------------|
-12-0-0-0-----12-0-0-0---------------------------------------------------------|

2:12
------------------------------------------------------------------------------|
------------------------------------------------------------------------------|
------------------------------------------------------------------------------|
---------------------------12-12-12-12-12-------------------------------------|
---------------------------12-12-12-12-12-------------------------------------|


Important: The song above is NOT stored on the Chordie server. The original song is hosted at www.guitaretab.com. Chordie works as a search engine and provides on-the-fly formatting. Chordie does not index songs against artists'/composers' will. To remove this song please click here.

This song is displayed as text-only. Transposing and tuning is only available for chordpro-songs.

Login - add to songbook

Rating click stars to rate

Layout
Accuracy

SHARE PAGE  




You need to log in to post comments