Chordie logo


Daybreak   Northstar



Artist: Northstar
Title: Daybreak

It's only the intro... good song though!

Tuning: Drop D

e|-------------------------------------------------------------------------------|
B|-----------0---------------0----------------0-----------------0----------------|
G|-------0-----0---------0-----0----------0-----0-----------0-----0--------------|
D|-----5---5-----5-----5---5-----5------5---5-----5-------5---5-----5------------|
A|---3-------------3-0-------------0----------------0-----------------0----------|
D|------------------------------------5-----------------5------------------------|

e|---------------------------------------------------------------------------|
B|-----------0---------------0--------------0-------------------0------------|
G|-------0-----0---------0-----0--------0-----0-------------0-----0----------|
D|-----5---5-----5-----5---5-----5----5---5-----5---------5---0-----5--------|
A|-----------------0----------------3--------------0------------------0------|
D|---2---------------5----------------------------------5--------------------|

e|---------------------------------------------------------------------------|
B|---------------------------------------------------------------------------|
G|-------0-------0-------0-------0---------0------------0--------------------|
D|-----5---5---5---5---5---5-------------------------------------------------|
A|---3-------5-------7-------9-9---9-10-10---10---10-10---10-----------------|
D|---------------------------------------------------------------------------|

------------------------------------------------------------------------------|
------0----0----0----0--------------------------------------------------------|
------------------------------------------------------------------------------|
---10----9----7----5----------------------------------------------------------|
--------------------------5~--------------------------------------------------|

2nd guit.

------7------10-----------------------------------------------------|
--7-8----7-8-----7-8-7---8-8-8-8--7-7-7-7---------------------------|
--------------------------------------------------------------------|
--------------------------------------------------------------------|
--------------------------------------------------------------------|



Important: The song above is NOT stored on the Chordie server. The original song is hosted at www.guitaretab.com. Chordie works as a search engine and provides on-the-fly formatting. Chordie does not index songs against artists/composers will. To remove this song please click here.

This song is displayed as text-only. Transposing and tuning is only available for chordpro-songs.

Login - add to songbook

Rating click stars to rate

Layout
Accuracy

SHARE PAGE  




You need to log in to post comments